VÍDEO AULAS

PARA ASSISTIR AULAS DE: VIOLÃO; GUITARRA; TECLADO E BAIXO, VÁ NOS MARCADORES: DICAS

Tablatura: Chord Melody 9 : Escorregando (1° Parte) ( Melodia - Acordes - Solo - Violão e Guitarra )

By Jeffão Peres
Escorregando ( Ernesto Nazareth)

E--12------10------------------------------------
B------12------13----10-------------------------
G-------------------9-----12--10--6--9--7--4---
D-------------------------------------------------
A-------------------------------------------------
E-------------------------------------------------

E----------------------------------------------------
B---------------8--8--8--5--8--8--8--6--8--8--8--
G----------------------------------------------------
D--5--4--3--2--------------------------------------
A----------------------------------------------------
E----------------------------------------------------

E-------------------12------10----------------------
B-----8--8--8----------12------13----10-----------
G--7------------5-------------------9------12--10--
D-----------------------------------------------------
A-----------------------------------------------------
E-----------------------------------------------------

E-----------------------------8--8--8-----8--8--8-----
B---------------------------------------5-----------6--
G--6--9--7--4-----------------------------------------
D---------------5--4--3--2----------------------------
A------------------------------------------------------
E-------------------------------------------------------

E--8--8--8----8--8--8----8--8--8--12--10-----------
B-----------7-----------8--------------------13--12--
G------------------------------------------------------
D------------------------------------------------------
A------------------------------------------------------
E------------------------------------------------------

E----------------------------------------------------
B--10-----------------------------------------------
G------12--10--9-----------------------------------
D------------------12--10--9--7--------------------
A---------------------------------10--8--7----------
E--------------------------------------------10--8---

Mais temas em Tablatura Chord Melody que você pode conferir em 
outras postagens:
Pomp and circumstance - Love me tender - Eu navegarei - Wave -
Pour Elise - Mais perto quero estar - Buscai primeiro - Not of this world -
Escorregando - Minueto - Nona Sinfonía - Jesus - Jazz blues 1 - Samba
de uma nota só - A Ele a glória ( porque Dele e por Ele ) - Vem! esta é
a hora - Oceano - O Barquinho - Sampa - Te agradeço - Meu bem 
querer - Garota de Ipanema - Eu sei que vou te amar - Carinhoso -
Coração de estudante - Este é o meu respirar - Assim como a corça -
A pantera cor de rosa - Em espírito e em verdade - Ele é exaltado -
Gente humilde - Poderoso Deus - Aclame ao Senhor - Santo! Santo!
Santo! cc9 - Yesterday - Over the rainbow - Os flintstones - Love of my
life - Quão preciosa são as horas - Pela luz dos olhos teus - My way -
Dei graças - Tristesse - Olha pra mim - Against all odds - True colors -
Heaven - Sonho de amor - Quanto amor - I want to know what love is -
Sou feliz com Jesus - Tears in heaven - Nos galhos secos - You'll be
in my heart