VÍDEO AULAS

PARA ASSISTIR AULAS DE: VIOLÃO; GUITARRA; TECLADO E BAIXO, VÁ NOS MARCADORES: DICAS

Acompanhamentos para Violão e Guitarra ( Blues 1, Blues 2, Rock'in Roll 1, Rock'in Roll 2, Reggae, Soul )

By Jeffão Peres

Blues 1
E----------------------------------------------------------------------
B----------------------------------------------------------------------
G--------------------------------- 7-----------------------------------
D--------------- 7---0--3--0--3--5---------------7-------------------
A--0--3--0--3--5--------------------0--3--0--3--5---------------7---
E------------------------------------------------------0--3--0--3--5--

Blues 2
E-------------------------------------------------------
B-------------------------------------------------------
G------------------------- 2----------------------------
D------------2--0--5--3--0----------- 2---------------
A--0--5--3--0---------------0--5--3--0------------2--
E------------------------------------------0--5--3--0--

Rock'in Roll 1
E--------------------------------------------------------
B--------------------------------------------------------
G--------------- 2--4--2--4-----------------------------
D--2--4--2--4--0--0--0--0--2--4--2--4----------------
A--0--0--0--0---------------0--0--0--0--2--4--2--4---
E-------------------------------------------0--0--0--0---

Rock'in Roll 2
E---------------------------------------------------------
B---------------------------------------------------------
G--------------- 2--4--5--4------------------------------
D--2--4--5--4--0--0--0--0--2--4--5--4-----------------
A--0--0--0--0---------------0--0--0--0--2--4--5--4----
E-------------------------------------------0--0--0--0----

Reggae
E-----------------5-----------------5---------------5-----------------3-
B-----------------5-----------------6---------------5-----------------5-
G-----------------5-----------2-2--7---------------5-----------------4-
D------------2-2----0-0-3-3-------------------2-2---------------------
A--0-0-3-3----------------------------0-0-3-3------------------2-2---
E---------------------------------------------------------0-0-3-3-------

Soul
E---------------x--2--x--r---------------- ---x--3--x--r---
B-------------- x--3--x--e--------------------x--1--x- e---
G-------------- x--0--x--p--------0-2h------ x--4--x--p---
D-----0-2h---- x--0--x-e------2------------- x--2--x- e---
A--2-----------x--2--x--t---------------0-0--x--0--x--t---
E----------0-0-x--0--x--e------------------------------ e--

obs. h Nota ligada com a anterior,  x Bater c/ mão dir. contra as cordas
Repete significa tocar toda a sequência novamente