VÍDEO AULAS

PARA ASSISTIR AULAS DE: VIOLÃO; GUITARRA; TECLADO E BAIXO, VÁ NOS MARCADORES: DICAS

Tablatura: Chord Melody 3 : Eu navegarei no oceano do Espírito ( Acordes - Melodia - Solo - Violão e Guitarra )

By Jeffão Peres
Eu navegarei no oceano de Espírito

E---0---------------0---0---0---0---0---5---3---5---3---3--
B------3---1---3---1-----------------------------3-----------
G-------------------2---------------------------- 4-----------
D-------------------------------------------------5-----------
A-------------------0-----------------------------------------
E--------------------------------------------------------------

E---3---1---0-------0---1---1-----1----1----5----3---0-----
B---------------3--------1---1--------------------------0----
G------------------------2---2------------------------- 1-----
D------------------------3---0--------------------------------
A--------------------------------------------------------------
E--------------------------------------------------------0-----

E---7---8---7---5---7---8---7---5---8---8---8---10---8-----
B------------------------ 5------------------------------------
G------------------------ 5------------------------------------
D--------------------------------------------------------------
A------------------------ 0------------------------------------
E---------------------------------------------------------------

E---7---5-------7---7---7---8---7---5---3-------5---5---5--
B-- 8-------8---8-------------------- 6-------6---6-----------
G-- 7-----------7---------------------5----------- 5----------
D-- 5-----------5---------------------3----------- 0----------
A--------------------------------------------------------------
E---------------------------------------------------------------

E---7---5---4------------
B----------- 5---6---5---
G-----------4------------
D-------------------------
A-------------------------
E-----------0-------------

Mais temas em Tablatura Chord Melody que você pode conferir em 
outras postagens:
Pomp and circumstance - Love me tender - Eu navegarei - Wave -
Pour Elise - Mais perto quero estar - Buscai primeiro - Not of this world -
Escorregando - Minueto - Nona Sinfonía - Jesus - Jazz blues 1 - Samba
de uma nota só - A Ele a glória ( porque Dele e por Ele ) - Vem! esta é
a hora - Oceano - O Barquinho - Sampa - Te agradeço - Meu bem 
querer - Garota de Ipanema - Eu sei que vou te amar - Carinhoso -
Coração de estudante - Este é o meu respirar - Assim como a corça -
A pantera cor de rosa - Em espírito e em verdade - Ele é exaltado -
Gente humilde - Poderoso Deus - Aclame ao Senhor - Santo! Santo!
Santo! cc9 - Yesterday - Over the rainbow - Os flintstones - Love of my
life - Quão preciosa são as horas - Pela luz dos olhos teus - My way -
Dei graças - Tristesse - Olha pra mim - Against all odds - True colors -
Heaven - Sonho de amor - Quanto amor - I want to know what love is -
Sou feliz com Jesus - Tears in heaven - Nos galhos secos - You'll be
in my heart