VÍDEO AULAS

PARA ASSISTIR AULAS DE: VIOLÃO; GUITARRA; TECLADO E BAIXO, VÁ NOS MARCADORES: DICAS

Violão e Guitarra: Acordes Simples 4 ( D, A7, Em, C, Am, F, Am, E, G7 )


By Jeffão Peres


Acordes Simples

          D             A7             Em
E------2----------0-----------0-----
B------3----------2-----------0-----
G------2----------0-----------0-----
D------0----------2-----------2-----
A-----------------0-----------2-----
E-----------------------------0-----

          C             Am              F
E------0----------0-----------0-----
B------1----------1-----------1-----
G------0----------2-----------2-----
D------2----------2-----------3-----
A------3----------0-----------------
E------------------------------------

        Am            E
E-----0----------0-----
B-----1----------0-----
G-----2----------1-----
D-----2----------2-----
A-----0----------2-----
E----------------0------

        C             G7 
E-----0----------1-------
B-----1----------0-------
G-----0----------0-------
D-----2----------0-------
A-----3----------2-------
E----------------3-------

         D             G
E-----2----------3------
B-----3----------0------
G-----2----------0------
D-----0----------0------
A------------------------
E------------------------


Dedos da mão esquerda 
(Nesses exemplos não será usado o mínimo) 
1 Indicador
2 Médio
3 Anelar



Você pode conferir mais categorias de Acordes em outras
postagens.