VÍDEO AULAS

PARA ASSISTIR AULAS DE: VIOLÃO; GUITARRA; TECLADO E BAIXO, VÁ NOS MARCADORES: DICAS

Violão e Guitarra: Acordes Simples 2 ( A, D, E, Em, Am, G, C, F, Dm, G7, B7 )

By Jeffão Peres


Acordes Simples


        A          D          E
E-----0-------2-------0---
B-----2-------3-------0--
G-----2-------2-------1--
D-----2-------0-------2--
A-----0---------------2--
E----------------------0--
        Em       Am         D         G
E-----0-------0-------2-------3--
B-----0-------1-------3-------0--
G-----0-------2-------2-------0--
D-----2-------2-------0-------0--
A-----2-------0---------------2--
E-----0-----------------------3--
        C           F        Dm       G7
E-----0-------0-------1-------1--
B-----1-------1-------3-------0--
G-----0-------2-------2-------0--
D-----2-------3-------0-------0--
A-----3-----------------------2--
E-----------------------------3--
        Em         D         C        B7
E-----0-------2-------0------2--
B-----0-------3-------1------0--
G-----0-------2-------0------2--
D-----2-------0-------2------1--
A-----2---------------3------2--
E-----0---------------------------
Dedos da mão esquerda
1 Indicador
2 Médio
3 Anelar
4 Mínimo

Você pode conferir mais categorias de Acordes em outras
postagens.