VÍDEO AULAS

PARA ASSISTIR AULAS DE: VIOLÃO; GUITARRA; TECLADO E BAIXO, VÁ NOS MARCADORES: DICAS

Tablatura: Chord Melody 7 : Buscai primeiro ( Acordes - Melodia - Solo - Violão e Guitarra )

By Jeffão Peres
Buscai primeiro

E--0---0---1---3---0------------------- 0---1---3---1---0---
B--1-----------0-------3---1---1---3---0---1------------1---
G--0-----------0-----------2------------0---2------------0---
D-------------------------- 2----------------3-----------------
A--3-----------------------0----------------------------------
E---------------0------------------------0-----------------0--

E--1---0----------- 0---0---0---1-- 3---3---0----------------
B----------3---3---1----------------0------------3---1---0---
G----------0---0---0----------------0----------------2-------
D----------0---3------------------------------------- 2-------
A--------------2---3--------------------------------- 0-------
E----------3-------------------------0-------------------------

E-----------0---0---1---3---1---0---1---0-----------8----7---
B--1---3---0-------1------------1-----------3---1---8----8---
G---------- 0-------2------------0-----------0---0---9----9---
D-------------------3------------------------0---2---10---9---
A--------------------------------3-----------2---3-------------
E-----------0---------------------------------------------------

E--5---3---5---3---3---5---7---8---7---5---3---1---3---1---
B--5---5---6---1---3---3---6---8---8---5---5---3------------
G--5---4---5---0---0---5---7---9---9---5---4---2------------
D--7---5---3---2---0---4---5--10---9---7---5---3------------
A----------------------------------------------------------------
E-----------------------------------------------------------------

E--0---1---0-----------
B--1-----------3---1---
G--0-----------2---0---
D--2-----------3---2---
A-------------------3---
E---------------3-------

Mais temas em Tablatura Chord Melody que você pode conferir em 
outras postagens:
Pomp and circumstance - Love me tender - Eu navegarei - Wave -
Pour Elise - Mais perto quero estar - Buscai primeiro - Not of this world -
Escorregando - Minueto - Nona Sinfonía - Jesus - Jazz blues 1 - Samba
de uma nota só - A Ele a glória ( porque Dele e por Ele ) - Vem! esta é
a hora - Oceano - O Barquinho - Sampa - Te agradeço - Meu bem 
querer - Garota de Ipanema - Eu sei que vou te amar - Carinhoso -
Coração de estudante - Este é o meu respirar - Assim como a corça -
A pantera cor de rosa - Em espírito e em verdade - Ele é exaltado -
Gente humilde - Poderoso Deus - Aclame ao Senhor - Santo! Santo!
Santo! cc9 - Yesterday - Over the rainbow - Os flintstones - Love of my
life - Quão preciosa são as horas - Pela luz dos olhos teus - My way -
Dei graças - Tristesse - Olha pra mim - Against all odds - True colors -
Heaven - Sonho de amor - Quanto amor - I want to know what love is -
Sou feliz com Jesus - Tears in heaven - Nos galhos secos - You'll be
in my heart