VÍDEO AULAS

PARA ASSISTIR AULAS DE: VIOLÃO; GUITARRA; TECLADO E BAIXO, VÁ NOS MARCADORES: DICAS

Tablatura: Chord Melody 11 : Not of this world 2° de 3 partes ( Melodia - Acordes - Solo - Violão e Guitarra )

By Jeffão Peres
Not of this world ( Petra) 2° de 3

E---------0------------------------------------ 3--
B--0--3------3----3---3----------1----------- 0--
G---------------0---------0----0-----0----0---0--
D-----0----------------------0----------2---------
A--2------3------------2--------- 0---------------
E-----------------------------------------------3--


E---------0---------------------------------3--  R
B--1--3-----3----3--3----------1----------0--  E
G--------------0--------0----0-----0---0--0--  P  2X
D--------------------------0----------2-------   E 
A--0--2--3----------2----------0-------------- T
E--------------------------------------------3-- E


E---------0---------0--------0--------0---------
B--1--3-----3---3----3---3----3---3----3----3-
G--------------0--------0--------0---------0----
D-------------------------------------------------
A--0--2--3---------2--------1-------------------
E-------------------------------------------------


E--0--------0---------0----------0----------
B----3---3----3----3----3----3----3----3---
G------0---------0---------0----------0-----
D--------------------------------------------
A--------------------------------------------
E--3------------------1----------------------


E--2--------2----------2--
B----3---3----3----3--3--
G------0---------0---- 0--
D----------------------0--
A----------------------2--
E--0-------------------0--

Mais temas em Tablatura Chord Melody que você pode conferir em 
outras postagens:
Pomp and circumstance - Love me tender - Eu navegarei - Wave -
Pour Elise - Mais perto quero estar - Buscai primeiro - Not of this world -
Escorregando - Minueto - Nona Sinfonía - Jesus - Jazz blues 1 - Samba
de uma nota só - A Ele a glória ( porque Dele e por Ele ) - Vem! esta é
a hora - Oceano - O Barquinho - Sampa - Te agradeço - Meu bem 
querer - Garota de Ipanema - Eu sei que vou te amar - Carinhoso -
Coração de estudante - Este é o meu respirar - Assim como a corça -
A pantera cor de rosa - Em espírito e em verdade - Ele é exaltado -
Gente humilde - Poderoso Deus - Aclame ao Senhor - Santo! Santo!
Santo! cc9 - Yesterday - Over the rainbow - Os flintstones - Love of my
life - Quão preciosa são as horas - Pela luz dos olhos teus - My way -
Dei graças - Tristesse - Olha pra mim - Against all odds - True colors -
Heaven - Sonho de amor - Quanto amor - I want to know what love is -
Sou feliz com Jesus - Tears in heaven - Nos galhos secos - You'll be
in my heart