VÍDEO AULAS

PARA ASSISTIR AULAS DE: VIOLÃO; GUITARRA; TECLADO E BAIXO, VÁ NOS MARCADORES: DICAS

Tablatura: Chord Melody 13 : Interpretação: Nona Sinfonía de Beethoven ( Acorde - Melodia - Solo - Violão e Guitarra )

By Jeffão Peres


Nesta edição tocaremos a primeira parte de uma das músicas mais conhecidas
a Nona Sinfonia de Beethoven. Vamos repetir quatro vezes o tema, sendo que:
Na 1° vez, tocaremos apenas a melodia
Na 2°, melodia e baixo
Na 3°, melodia e harmonia
E na 4°, uma linha mais orquestrada



E--0--0--1--3--3--1--0---------------0--0---------
B-------------------------3--1--1--3--------3--3---
G----------------------------------------------------
D----------------------------------------------------
A----------------------------------------------------
E----------------------------------------------------

E--0--0--1--3--3--1--0---------------0-------------
B-------------------------3--1--1--3-----3--1--1---
G----------------------------------------------------
D----------------------------------------------------
A----------------------------------------------------
E----------------------------------------------------


E--0--0--1--3--3--1--0---------------0--0----------
B-------------------------3--1--1--3---------3--3---
G-----------------------------------------------------
D---------------3-------------------------------------
A--3-------------------------3-----------------------
E------------------------------------------3----------

E--0--0--1--3--3--1--0---------------0-------------
B-------------------------3--1--1--3-----3--1--1---
G----------------------------------------------------
D---------------3------------------------------------
A--3-------------------------3-------------------3---
E------------------------------------------3----------


E--0--0--1--3--3--1--0---------------0--0----------
B--------------- 1--------3--1--1--3-----3---3--3---
G--0------------2------------0-----------2---2--0---
D----------------------------------------- 0----------
A--3---------------------------- 3--2--0-------------
E------------0--1------------0----------------2--3---

E--0--0--1--3--3--1--0----------------0-------------
B---------------1---------3--1--1--3------3--1--1---
G--0----------- 2------------0------------------------
D-------------------------------------------3-----2---
A--3----------------------------------------------3---
E------------0--1---------4--3-------------3---------


E--0--0--1--3--3--1----------------------------------
B--1--1--1--1--1-----5--3--1--1--3--5--5--3--3----
G--0--0--0--0--1------------------5--5--5--4--0----
D----------------------------2--2--3--5--4--3--0----
A--3--2--1--0---------------0--------0---------2----
E----------------4-----3--4-----3--4-----------------

E--0--0--1--3--3--1----------------------------------
B--1--1--1--1--1------5--3--1--1--3--5--3-----1---
G--0--0--0--0--1-------------------5--5--4--5--0---
D-----------------------------2--2--3--5--3------2--
A--3--2--1--0----------------0-------------------3--
E----------------4------3--4-----3--4--3--3---------

Mais temas em Tablatura Chord Melody que você pode conferir em 
outras postagens:
Pomp and circumstance - Love me tender - Eu navegarei - Wave -
Pour Elise - Mais perto quero estar - Buscai primeiro - Not of this world -
Escorregando - Minueto - Nona Sinfonía - Jesus - Jazz blues 1 - Samba
de uma nota só - A Ele a glória ( porque Dele e por Ele ) - Vem! esta é
a hora - Oceano - O Barquinho - Sampa - Te agradeço - Meu bem 
querer - Garota de Ipanema - Eu sei que vou te amar - Carinhoso -
Coração de estudante - Este é o meu respirar - Assim como a corça -
A pantera cor de rosa - Em espírito e em verdade - Ele é exaltado -
Gente humilde - Poderoso Deus - Aclame ao Senhor - Santo! Santo!
Santo! cc9 - Yesterday - Over the rainbow - Os flintstones - Love of my
life - Quão preciosa são as horas - Pela luz dos olhos teus - My way -
Dei graças - Tristesse - Olha pra mim - Against all odds - True colors -
Heaven - Sonho de amor - Quanto amor - I want to know what love is -
Sou feliz com Jesus - Tears in heaven - Nos galhos secos - You'll be
in my heart