VÍDEO AULAS

PARA ASSISTIR AULAS DE: VIOLÃO; GUITARRA; TECLADO E BAIXO, VÁ NOS MARCADORES: DICAS

Violão e Guitarra: Técnica para palheta ( Speed Picking - Alternate Picking - Sweep Picking )

By Jeffão Peres
Palhetada
Speed Picking
    ^   v   ^  ^   v  ^   ^   v  v  ^  v    v  ^
E----------------------5--7------------------
B------------5--6--8--------8--6--5--------
G--4--5--7----------------------------7--5--
D---------------------------------------------
A---------------------------------------------
E---------------------------------------------
Alternate Picking
    ^   v   ^   v  ^   v  ^  v   ^    v   ^   v   ^ 
E-------------------5-------------------------
B---------5--6--8-----8--6--5---------------
G--5--7--------------------------7--5--4--5-
D----------------------------------------------
A----------------------------------------------
E----------------------------------------------
Sweep Picking
   ^   ^  ^  ^  ^               v    v    v    v
E--------------2--h5--p2-----------------
B-----------3--------------3--------------
G--------2--------------------2----------
D-----4---------------------------4------
A--5----------------------------------5--
E-----------------------------------------
Obs.
^ Palheta para baixo
v Palheta para cima 
h Hammer-on = Tocar sem palhetar
ligando com a nota anterior 
p Pull-off = Tocar sem palhetar,
ligando com a nota anterior.