VÍDEO AULAS

PARA ASSISTIR AULAS DE: VIOLÃO; GUITARRA; TECLADO E BAIXO, VÁ NOS MARCADORES: DICAS

Contra Baixo: Acompanhamentos 1 ( Blues, Reggae, Soul )

By Jeffão Peres
Baixo
Blues 1
G-----------------------------------------------------
D-------------- 0-3-0-3-5----------------------------
A--0-3-0-3-5---------------0-3-0-3-5----------------
E-----------------------------------------0-3-0-3-5-
Blues 2
G-----------------------------------------
D------------0-5-3-0----------------------
A--0-5-3-0------------0-5-3-0------------
E---------------------------------0-5-3-0-
Reggae
G---------------------------2-2-----------------
D----------2-2-----0-0-3-3---------------------
A--0-0-3-3---------------------------------2-2-
E-----------------------------------0-0-3-3-----
Soul
G-----------------------------0-2h---------------
D--0-2h------------------------------------------
A-----------------------------------0-0-x-0-x---
E--------0-0-x-0-x-------------------------------
Obs.( h ) Ligar com a nota anterior 
      ( x ) Bater com os dedos indicador e 
      médio da mão direita contra as cordas.