VÍDEO AULAS

PARA ASSISTIR AULAS DE: VIOLÃO; GUITARRA; TECLADO E BAIXO, VÁ NOS MARCADORES: DICAS

Tablatura: Chord Melody 19 : A Ele a glória ( Acorde - Melodia - Solo - Violão e Guitarra)

By Jeffão Peres
A Ele a glória


E--0--0--0--2--3--3--0--0--3--3--2--2--0---0------0---0--R
B--0---------------1---0-------- 3---------3------3---0------E
G--0---------------0---0-------- 2---------2----------0------P
D-------------------------------- 0---------0------------------E
A------------------3---3--------------------------------------T
E--0-----------------------------------------------------0-----E

E-------------------------------------------------------------------
B----------0---1------------------------0--------------------------
G--0---2------ 0-- 4---2-------0---2--0---2--0---2---0------0--
D--------------2---5---4---4-----------0-------------------4-- 2--
A--------------3---3---5----------------------------------------2--
E-------------------0-----------0---2---3-----------2-----------0--

E--------------------------------------------3---5---7---8---7---5--
B---------------------------------------------------------8---8---7--
G-----------0---0-----------0----------------------------9---5---7--
D---2---4------ 2---4---4------4------2---------------10-------0--
A---2-----------0---2---2---------5---2-----------------------------
E---0------------------------------------0---------------------0-----

E----------------7---5-------------------------------------3---2---2--
B--7---8---10--8------8----10---8---7---8-----7---8-- 5---3---3--
G--7--------7---7------------7------------7---9----------5---2---2--
D--0--------7---5------------7------------9--------------------------
A-----------9-----------------9------------7--------------0---2---2--
E----------------------------------------------------------------------

E---3---2------0---
B----------2---0---
G--------------0---
D------------------
A------------------
E--------------0---

Mais temas em Tablatura Chord Melody que você pode conferir em 
outras postagens:
Pomp and circumstance - Love me tender - Eu navegarei - Wave -
Pour Elise - Mais perto quero estar - Buscai primeiro - Not of this world -
Escorregando - Minueto - Nona Sinfonía - Jesus - Jazz blues 1 - Samba
de uma nota só - A Ele a glória ( porque Dele e por Ele ) - Vem! esta é
a hora - Oceano - O Barquinho - Sampa - Te agradeço - Meu bem 
querer - Garota de Ipanema - Eu sei que vou te amar - Carinhoso -
Coração de estudante - Este é o meu respirar - Assim como a corça -
A pantera cor de rosa - Em espírito e em verdade - Ele é exaltado -
Gente humilde - Poderoso Deus - Aclame ao Senhor - Santo! Santo!
Santo! cc9 - Yesterday - Over the rainbow - Os flintstones - Love of my
life - Quão preciosa são as horas - Pela luz dos olhos teus - My way -
Dei graças - Tristesse - Olha pra mim - Against all odds - True colors -
Heaven - Sonho de amor - Quanto amor - I want to know what love is -
Sou feliz com Jesus - Tears in heaven - Nos galhos secos - You'll be
in my heart