VÍDEO AULAS

PARA ASSISTIR AULAS DE: VIOLÃO; GUITARRA; TECLADO E BAIXO, VÁ NOS MARCADORES: DICAS

Tablatura: Chord Melody 18 : Samba de uma nota só ( Acorde - Melodia - Solo - Violão e Guitarra)

By Jeffão Peres
Samba de uma nota só


E---------------------------------------------------------------------R
B---0---0---0---0---0---0---0---0---0---0---0---0---0---0---0--E
G------------4----------------4-----------------2----------------2--P
D------------4----------------3-----------------2----------------1--E
A--------------------------------------------------------------------T
E------------4----------------3-----------------2----------------1--E

E---0---0------------------------------------------------------------
B-----------5---5---5---5---5---5---5---5---5---5---5---5---5----
G-----------7----------------7----------------6-----------------5----
D-----------7----------------6----------------6-----------------4----
A--------------------------------------------------------------------
E-----------7----------------6----------------5-----------------5----

E--------------------------------------------------------------------
B---0---0---0---0---0---0---0---0---0---0---0---0---0---0--5--
G-----------4-----------------4-----------------2-------2-------6--
D-----------4-----------------3-----------------2-------1-------6--
A---------------------------------------------------------------- 7--
E-----------4-----------------3-----------------2-------1----------

E---------------5-----------------------------------------------------
B---5---7---8-----8---7---5----------0-------------------0---3---3-
G---5--------------------------7---5-----2---0----0---2------4---4-
D---5--------------------------------------------4-------------4---2-
A---------------------------------------------------------------------
E---5-----------------------------------------------------------3---3-

E-----------------------------------3----------------------------------
B---------0---3---3---3---5---6-----6---5---3----------------------
G------0------4---4---3--------------------------5---3---2---0-----
D---4---------4---2---3------------------------------------------3--
A---------------------------------------------------------------------
E--------------3---3---3----------------------------------------------

E-----------------------------------------------
B---------------------------------------1---0--
G----------0---2---2---2----------2---2---2--
D---2---3----------2---0---2---3------2---1--
A-----------------------------------------------
E-------------------1---1---------------2---1--

Mais temas em Tablatura Chord Melody que você pode conferir em 
outras postagens:
Pomp and circumstance - Love me tender - Eu navegarei - Wave -
Pour Elise - Mais perto quero estar - Buscai primeiro - Not of this world -
Escorregando - Minueto - Nona Sinfonía - Jesus - Jazz blues 1 - Samba
de uma nota só - A Ele a glória ( porque Dele e por Ele ) - Vem! esta é
a hora - Oceano - O Barquinho - Sampa - Te agradeço - Meu bem 
querer - Garota de Ipanema - Eu sei que vou te amar - Carinhoso -
Coração de estudante - Este é o meu respirar - Assim como a corça -
A pantera cor de rosa - Em espírito e em verdade - Ele é exaltado -
Gente humilde - Poderoso Deus - Aclame ao Senhor - Santo! Santo!
Santo! cc9 - Yesterday - Over the rainbow - Os flintstones - Love of my
life - Quão preciosa são as horas - Pela luz dos olhos teus - My way -
Dei graças - Tristesse - Olha pra mim - Against all odds - True colors -
Heaven - Sonho de amor - Quanto amor - I want to know what love is -
Sou feliz com Jesus - Tears in heaven - Nos galhos secos - You'll be
in my heart