VÍDEO AULAS

PARA ASSISTIR AULAS DE: VIOLÃO; GUITARRA; TECLADO E BAIXO, VÁ NOS MARCADORES: DICAS

Contra Baixo: Oitavas 1 ( DO, RE, MI, FA, SOL, LA, SI )

By Jeffão Peres


Nos instrumentos como o Baixo, Violão e a 
Guitarra, nós podemos utilizar desenhos de 
escalas, tríades, tetrades, entre outros, de forma
simétrica, ou seja, repetir as formas em qualquer 
lugar do braço.
Um dos desenhos simétricos mais utilizados no 
Baixo é a oitava. Ou seja: tocar a mesma nota uma 
oitava acima ou abaixo.
Alguns exemplos para Baixo de 4 cordas


 DO          RE         MI          FA             SOL
G-----5--------7--------9--------10----------12--
D---------------------------------------------------
A--3--------5--------7--------8----------10-------
E---------------------------------------------------


  MI         FA          SOL         LA         SI
G----------------------------------------------------
D-----2--------3---------5--------7---------9------
A----------------------------------------------------
E--0--------1---------3--------5---------7---------


  DO          LA           RE        SOL
G-----5-------------------7------------
D---------------7------------------5---
A--3-------------------5---------------
E------------5------------------3------


   SOL         SI           DO         RE
G---------------4---------5--------7---
D-----5---------------------------------
A------------2---------3--------5-------
E--3-------------------------------------