VÍDEO AULAS

PARA ASSISTIR AULAS DE: VIOLÃO; GUITARRA; TECLADO E BAIXO, VÁ NOS MARCADORES: DICAS

Violão e Guitarra: Dedilhados 3 ( D, A7, Em )

By Jeffão Peres
Dedilhados
Identificação dos dedos
Os dedos da mão direita são identificados pelas
suas iniciais
P = Polegar
I = Indicador
M = Médio
A = Anelar
Não é usado o dedo Mínimo
Vamos usar 3 exemplos de dedilhados sobre a 
mesma sequência de acordes. Você deve aplicar
a ordem dos dedos corretamente e com métrica.
Nos acordes que usaremos agora você perceberá 
que apenas o P ( Polegar) vai mudar de corda.
Os dedos I, M, A ( Indicador, Médio e Anelar) 
permanecerão sempre nas cordas 3, 2 e 1 
respectivamente.
Ordem dos dedilhados:
P I M A
P A M I
P I M A M I
  1°     D                   A7               Em 
E-------------2--------------0-------------0-
B---------3---------------2-------------0----
G-----2----------------0-------------0-------
D--0------------------------------------------
A-------------------0-------------------------
E---------------------------------0-----------
  2°    D                A7               Em
E------2-------------0---------------0------
B---------3-------------2---------------0---
G------------2-------------0--------------0-
D--0----------------------------------------
A-----------------0-------------------------
E---------------------------------0----------
  3°        D                  A7               Em
E--------2---------------0---------------0----
B------3---3-----------2---2-----------0---0--
G----2-------2------0--------0-------0-------0-
D--0--------------------------------------------
A-----------------0-----------------------------
E----------------------------------0------------