VÍDEO AULAS

PARA ASSISTIR AULAS DE: VIOLÃO; GUITARRA; TECLADO E BAIXO, VÁ NOS MARCADORES: DICAS

Violão e Guitarra: Tapping 1 ( Em, C, D, Am, G, F )

By Jeffão Peres
Tapping
Veremos alguns exemplos de Tapping construidos 
sobre o formato de Tríades.
A nota digitada com a mão direita pode ser feita 
com os dedos indicador ou médio, mas levando em 
consideração que a técnica do Tapping não é aplicada 
apenas isoladamente, é interessante que você 
desenvolva uma boa agilidade com o dedo médio, já 
que normalmente o guitarrista está segurando a 
palheta com os dedos polegar e indicador.
Obs. Nota digitada com a mão diteita 
  1°       Em                 C                      D
E---------------------------------------------
B--12---5---8-----13---5---8-----10---3---7--
G----------------------------------------------
D----------------------------------------------
A----------------------------------------------
E----------------------------------------------
  2°      Em                  C                 Am                  
E---7---0---3-----8---0---3------8---0---5--
B--------------------------------------------
G--------------------------------------------
D--------------------------------------------
A--------------------------------------------
E--------------------------------------------
  3°       C                  G                     F
E--------------------------------------------
B--------------------------------------------
G--12---5---9----12---4---7-----10---2---5-
D--------------------------------------------
A--------------------------------------------
E--------------------------------------------
  4°       G                     D                   Em
E--15---7---10-------------------------------
B------------------15---7---10---------------
G---------------------------------16---9---12-
D---------------------------------------------
A---------------------------------------------
E---------------------------------------------
Não está sendo indicado a quantidade de
repetições por Tríades, mas para haver uma
sequência "musical", sugiro que você repita
4x a 1° e 2° Tríade e 8x a 3°, de todos os
exemplos