VÍDEO AULAS

PARA ASSISTIR AULAS DE: VIOLÃO; GUITARRA; TECLADO E BAIXO, VÁ NOS MARCADORES: DICAS

Contra Baixo: Tríades de DO Maior e DO Menor

By Jeffão Peres


Obs: Tônica  III grau  V Grau


DO Maior
G-------------------0-------------------------------------------------
D----2--5--------2-------------5---------------------5---------------
A--3-----------3----------3--7---------7--10------7------------10--
E--------------------------------------8-----------8-------8--12-----

G------9--12------------12------------12-----------------------------
D--10-----------10--14------------14----------14--17-----------17--
A--------------------------------15----------15-----------15--19-----
E-----------------------------------------------------------------------

DO Menor
G-----------------0-------------------------------------------------------
D----1--5------1------------5------------------------5-------------------
A--3---------3---------3--6-----------6--10-------6---------------10----
E------------------------------------8------------8----------8--11--------

G------8--12------------12------------12---------------------------------
D--10-----------10--13------------13------------13--17------------17---
A-------------------------------15------------15------------15--18-------
E---------------------------------------------------------------------------

Você pode conferir mais tons em outras Postagens