VÍDEO AULAS

PARA ASSISTIR AULAS DE: VIOLÃO; GUITARRA; TECLADO E BAIXO, VÁ NOS MARCADORES: DICAS

Violão e Guitarra: Tríades ( D, Dm )

By Jeffão Peres
Tríades simples
Maior D RE FA# LA
E--2------------------------------5---10---------------------
B--3---3---------------------7---7---10---10----------------
G--2---2---2------------7---7---7---11---11---11----------
D------4---4-- 4----7---7---7-------------12---12---12-----
A----------5---5----9---9-----------------------12---12-----
E-------------- 5---10---------------------------------14-----
Menor Dm RE FA LA
E--1------------------------------5---10-----------------------
B--3---3---------------------6---6---10---10------------------
G--2---2---2------------7---7---7---10---10---10------------
D------3---3---3----7---7---7-------------12---12---12------
A----------5---5----8---8-----------------------12---12------
E---------------5---10--------------------------------13-------
Os modelos também podem ser tocados como arpejos