VÍDEO AULAS

PARA ASSISTIR AULAS DE: VIOLÃO; GUITARRA; TECLADO E BAIXO, VÁ NOS MARCADORES: DICAS

Tablatura: Chord Melody 20 : O Barquinho ( Acorde - Melodia - Solo - Violão e Guitarra)

O Barquinho
By Jeffão Peres

E---------------------------------------------------------------------
B-----------------8-----------------8---7---6---5---5---5---5---5--
G--9---10---9---9---9---10---9--9------------7----------------7--
D--7-------------7-----------------7------------7----------------7--
A--8-------------8-----------------8---------------------------------
E-------------------------------------------------7----------------7--

E-------------------------------------------------------------------
B----------5---5---5---5---5-----------------6----------------6---
G--4---7--7----------------7----7---8---7---7---7---8---7---7---
D----------6----------------6---5------------5-----------------5--
A--------------------------------6------------6-----------------6--
E-----------6---------------6---------------------------------------

E--------------------------------------------------------------------
B--5---4---3--3---3---3--3---------- 3---3---3---3---3-----------
G----------5---------------5---2---5--5----------------5---5---6--
D----------5---------------5-----------4----------------4---3------
A------------------------------------------------------------4------
E----------5---------------5-----------4----------------4-----------

E---------------------------------------------- 3--1----------------5--3--
B--------4--------------- 4---3---2---1---1----------1---3---4----------
G---5---5---5---6---5---5------------3---3----------2-------5----------
D-------3----------------3------------3---2---------- 2------4----------
A-------4----------------4------------------------------------5----------
E--------------------------------------3---2---------- 1------------------

E----------------
B-------1---2---
G---3-------3---
D---3-------2---
A-----------3---
E---3-----------

Mais temas em Tablatura Chord Melody que você pode conferir em 
outras postagens:
Pomp and circumstance - Love me tender - Eu navegarei - Wave -
Pour Elise - Mais perto quero estar - Buscai primeiro - Not of this world -
Escorregando - Minueto - Nona Sinfonía - Jesus - Jazz blues 1 - Samba
de uma nota só - A Ele a glória ( porque Dele e por Ele ) - Vem! esta é
a hora - Oceano - O Barquinho - Sampa - Te agradeço - Meu bem 
querer - Garota de Ipanema - Eu sei que vou te amar - Carinhoso -
Coração de estudante - Este é o meu respirar - Assim como a corça -
A pantera cor de rosa - Em espírito e em verdade - Ele é exaltado -
Gente humilde - Poderoso Deus - Aclame ao Senhor - Santo! Santo!
Santo! cc9 - Yesterday - Over the rainbow - Os flintstones - Love of my
life - Quão preciosa são as horas - Pela luz dos olhos teus - My way -
Dei graças - Tristesse - Olha pra mim - Against all odds - True colors -
Heaven - Sonho de amor - Quanto amor - I want to know what love is -
Sou feliz com Jesus - Tears in heaven - Nos galhos secos - You'll be
in my heart