VÍDEO AULAS

PARA ASSISTIR AULAS DE: VIOLÃO; GUITARRA; TECLADO E BAIXO, VÁ NOS MARCADORES: DICAS

Tablatura: Chord Melody 21 : Sampa ( Acorde - Melodia - Solo - Violão e Guitarra)

Sampa
By Jeffão Peres

E---------------3---3---3----------------4---3---4--------------------------
B--5---5---5--5------------5---5---5-- 3-----------5---3---2---10---10--
G--4-----------4------------7-----------4-----------5---3---3----------9---
D--5------------------------7------------------------5---3---2---------10--
A--3-----------3-------------------------------------0-------3----------8---
E----------------------------7-----------0----------------3-----------------

E---------------8---8---8---5---5---5---5---9---8---9---5----5---3---3---
B--10---10---10-----------6-----------------8------------6--------3-------
G--------------9------------6---------------- -9-----------5--------4-------
D-----------------------------------------------------------0--------5-------
A--------------8------------0-----------------0------------------------------
E-----------------------------------------------------------------------------

E---3---7---7---7---10---7---3---1---3---1---0---0--------------2---2---2--
B-------6-------------9---6---3---3------------1------3---3---3---1-----------
G-------7------------10---7---4---1------------0------2-----------2-----------
D-------5-------------9---6---3------------------------0-----------0-----------
A------------------------------------------------0-------------------------------
E-----------------------------------0--------------------------------------------

E--5---5---5---8---8---8---8---5---------------------2---2---2---5---5--5--
B--5------------7----------------7---3---3---3---3---1------------5----------
G--5------------7----------------5---2----------------2------------5----------
D--0------------0----------------0---0----------------0------------0----------
A-------------------------------------------------------------------------------
E--------------------------------------------------------------------------------

E--8---8---8---8---5-------------------------------------------------------------
B--7-----------6-------4-------1---1---1---1---1---1--1--1---1---1---1-------
G--7-----------7-------4---0---0----------------1----------3------------3---2--
D--0-----------0-------3-------2----------------2----------3------------2-------
A-------------------------------3----------------3--------------------------------
E-----------------------3------------------------------------3------------2-------

E-----------------------------------------------5-------5--------------3------3--
B--1--1--1--1--1--1--1--1--1---8---8---8--6---8-----6---6---6---3---6-----
G--2------------2-------------2---7-----------6----------5-----------4----------
D--2------------2-------------1---5----------------------3-----------3----------
A----------------------------------------------0----------5-----------------------
E--1------------1-------------2---0-----------------------------------------------

E----------------------------------------------------------------------
B--5---5---------------8---8---8---4---4---4---4---3---1---3---1---
G--6---6---7---7---7---------------4-----------------4------------4---
D--5---5---7------------------------3-----------------3------------2---
A------0---8--------------------------------------------------------3---
E--0------10------------------------3-----------------3----------------

Mais temas em Tablatura Chord Melody que você pode conferir em 
outras postagens:
Pomp and circumstance - Love me tender - Eu navegarei - Wave -
Pour Elise - Mais perto quero estar - Buscai primeiro - Not of this world -
Escorregando - Minueto - Nona Sinfonía - Jesus - Jazz blues 1 - Samba
de uma nota só - A Ele a glória ( porque Dele e por Ele ) - Vem! esta é
a hora - Oceano - O Barquinho - Sampa - Te agradeço - Meu bem 
querer - Garota de Ipanema - Eu sei que vou te amar - Carinhoso -
Coração de estudante - Este é o meu respirar - Assim como a corça -
A pantera cor de rosa - Em espírito e em verdade - Ele é exaltado -
Gente humilde - Poderoso Deus - Aclame ao Senhor - Santo! Santo!
Santo! cc9 - Yesterday - Over the rainbow - Os flintstones - Love of my
life - Quão preciosa são as horas - Pela luz dos olhos teus - My way -
Dei graças - Tristesse - Olha pra mim - Against all odds - True colors -
Heaven - Sonho de amor - Quanto amor - I want to know what love is -
Sou feliz com Jesus - Tears in heaven - Nos galhos secos - You'll be
in my heart