VÍDEO AULAS

PARA ASSISTIR AULAS DE: VIOLÃO; GUITARRA; TECLADO E BAIXO, VÁ NOS MARCADORES: DICAS

Violão e Guitarra: Acordes: M7+, m7 e add9 ( C7+, F7M, Gmaj7, Am7, Em7, Cadd9, D9 ...)

By Jeffão Peres


Acordes com 7°


        C7+      F7+      D7+       G7+
E----0-------0-------2-------2--
B----0-------1-------2-------3--
G----0-------2-------2-------4--
D----2-------3-------0-------5--
A----3---------------------------
E---------------------------------
Nomeclatura: C7+ = C7M = Cmaj7
       Dm7     Am7      Em7
E-----1-------0-------0--
B-----1-------1-------3--
G-----2-------0-------0--
D-----0-------2-------2--
A-------------0-------2--
E----------------------0--
     Cadd9    Fadd9     D9        A9
E-----0-------3-------0-------0--
B-----3-------1-------3-------0--
G-----0-------2-------2-------2--
D-----2-------3-------0-------2--
A-----3-----------------------0--
E----------------------------------
Nomeclatura: Nos acordes add9 está inserida 
a terça, já nos acordes 9, não tem terça. 
Você pode conferir mais categorias de Acordes em outras
postagens.