VÍDEO AULAS

PARA ASSISTIR AULAS DE: VIOLÃO; GUITARRA; TECLADO E BAIXO, VÁ NOS MARCADORES: DICAS

Contra Baixo: Tríade 4 - Campo H. Maior ( C, Dm, Em, F, G, Am, Bm(5b) )

By Jeffão Peres


Campo Harmônico Maior Tríade :Tom DO
Tônica   III    V
1° Modelo
       C              Dm             Em             F
G-------------------2--------0--4-------2--5--
D-----2--5-------3--------2----------3--------
A--3-----------5-------------------------------
E----------------------------------------------
       G               Am             Bm(5b)
G----------------------------------
D------0------------2---------0--3-
A----2--------0--3---------2-------
E--3--------------------------------
2° Modelo
       C             Dm               Em             F
G--------------------------------4----------5--
D-------5-----------7---------5------3--7-----
A----7--------5--8---------7-------------------
E--8-------------------------------------------
       G               Am              Bm(5b)
G----4--7---------------------------
D--5---------------2-------------3--
A----------------3---------2--5-----
E--------------5---------------------
3° Modelo
        C                     Dm                 Em              F
G-----------12---------10--14-----------------------5-
D--10--14---------12---------------------9-------7----
A-----------------------------------7--10-------8------
E-------------------------------------------------------
          G                  Am            Bm(5b)
G----------------------5--9-------------
D-----------12-----7-----------------3-
A--10--14-------------------------5----
E--------------------------------7-------