VÍDEO AULAS

PARA ASSISTIR AULAS DE: VIOLÃO; GUITARRA; TECLADO E BAIXO, VÁ NOS MARCADORES: DICAS

Contra Baixo: Tríades 3 ( Am, E, A, Dm )

By Jeffão Peres


Sequência de Tríades
                Am                                   E
G-------------2--------------------------------------
D---------2------2-----------------------2----------
A--0--3-------------3----------------2------2-------
E-------------------------------0--4-------------4---
                 Am                                 A
G-------------2--------------------------2-----------
D---------2------2-------------------2------2-------
A--0--3--------------3--------0--4-------------4---
E-----------------------------------------------------
                 Dm                                 Am
G---------2--7--2-----------------------2-----------
D-----3-------------3----------------2------2-------
A--5---------------------------0--3-------------3---
E-----------------------------------------------------
                 E                                   Am
G----------------------------------------2-------------
D------------2-----------------------2------2---------
A---------2-----2-------------0--3-------------3---0-
E--0--4------------4-----------------------------------