VÍDEO AULAS

PARA ASSISTIR AULAS DE: VIOLÃO; GUITARRA; TECLADO E BAIXO, VÁ NOS MARCADORES: DICAS

Violão e Guitarra: Dedilhados 2 ( C, Em, F, Am, D, G, A, E/A, D/A ...)

By Jeffão Peres
Padrões
Polegar Médio Indicador Anelar
           C                    Em                  F
E-----------0----------------0-------------0--
B-----1---------------0--------------1--------
G--------0---------------0--------------2-----
D----------------------------------3-----------
A--3-------------------------------------------
E------------------0---------------------------
          Am                   D                     G
E-----------0---------------2----------------3-
B-----1---------------3---------------0--------
G--------2---------------2----------------0----
D------------------0----------------------------
A--0--------------------------------------------
E-----------------------------------3-----------
Polegar Anelar Indicador Médio
         D                      Em                     A
E------2---------------0--------------0--------
B------------3---------------0---------------2-
G--------2---------------0---------------2-----
D--0--------------------------------------------
A----------------------------------0------------
E-------------------0---------------------------
         A                       E/A                    D/A
E------------------------------------------------
B-----2----------------0---------------3--------
G-----------2----------------1---------------2--
D-------2----------------2----------------4-----
A--0----------------0---------------0-----------
E-------------------------------------------------