VÍDEO AULAS

PARA ASSISTIR AULAS DE: VIOLÃO; GUITARRA; TECLADO E BAIXO, VÁ NOS MARCADORES: DICAS

Escalas: Menor Natural ( Cm, Cm7 )

By Jeffão Peres

Desenhos Simples da Escala Menor Natural ( Eóleo)

DO Tônica

Modelo a partir da 3° corda
E-----------------------6--8---8--6---------------------
B------------6--8--9-----------------9--8--6-----------
G--5--7--8-------------------------------------8--7--5-
D-------------------------------------------------------
A-------------------------------------------------------
E-------------------------------------------------------

Modelo a partir da 4° corda
E-------------------------------------------------------
B----------------------11-13--13-11--------------------
G-----------10-12-13----------------13-12-10----------
D-10-12-13------------------------------------13-12-10-
A------------------------------------------------------
E------------------------------------------------------

Modelo a partir da 5° corda
E-----------------------------------------------------
B-----------------------------------------------------
G---------------------3--5---5--3--------------------
D-----------3--5--6----------------6--5--3----------
A--3--5--6-----------------------------------6--5--3-
E----------------------------------------------------

Modelo a partir da 6° corda
E-----------------------------------------------------
B-----------------------------------------------------
G-----------------------------------------------------
D---------------------8-10--10-8--------------------
A-----------8-10-11---------------11-10-8-----------
E-8-10-11------------------------------------11-10-8-

Como são modelos fechados ( sem corda solta), você
pode utiliza-los em qualquer tom, apenas deslocando-os
de acordo com a Tônica.