VÍDEO AULAS

PARA ASSISTIR AULAS DE: VIOLÃO; GUITARRA; TECLADO E BAIXO, VÁ NOS MARCADORES: DICAS

Escalas: Pentatônica 1° modelo ( DO Maior, LA Menor, MI Maior, DO# Menor, SOL Maior, MI Menor )

By Jeffão Peres

1° Modelo

Tonalidades: DO Maior ou LA Menor
E---------------------------3-5-5-3-------------------------
B----------------------3-5-----------5-3--------------------
G-----------------2-5---------------------5-2---------------
D------------2-5-------------------------------5-2----------
A-------3-5-----------------------------------------5-3------
E--3-5---------------------------------------------------5-3-

Tonalidades: Mi Maior ou DO# Menor
E---------------------------7-9-9-7----------------------------
B----------------------7-9-----------9-7-----------------------
G-----------------6-9---------------------9-6------------------
D------------6-9--------------------------------9-6------------
A-------7-9-------------------------------------------9-7-------
E--7-9------------------------------------------------------9-7-

Tonalidades: SOL Maior ou Mi Menor
E--------------------------------------------10-12-
B-----------------------------------10-12---------- I
G---------------------------9-12------------------- D
D--------------------9-12-------------------------- A
A-----------10-12----------------------------------
E--10-12-------------------------------------------

E--12-10--------------------------------------------
B-----------12-10---------------------------------- V
G--------------------12-9---------------------------O
D---------------------------12-9-------------------- L
A-----------------------------------12-10-----------T
E--------------------------------------------12-10--A