VÍDEO AULAS

PARA ASSISTIR AULAS DE: VIOLÃO; GUITARRA; TECLADO E BAIXO, VÁ NOS MARCADORES: DICAS

Violão e Guitarra: Baixo de passagem I, I/III, IV ( C/E, D/F#, E/G#, F/A, G/B, A/C# ...)

By Jeffão Peres


Baixo de passagem I , I/III , IV


    C      C/E     F          D       D/F#   G 
E--0-----0-----1-------2------2-----3----
B--1-----1-----1-------3------3-----0----
G--0-----0-----2-------2------2-----0----
D----------------------0------------------
A--3--------------------------------------
E--------0-----1---------------2-----3----
    E      E/G#   A         F      F/A         Bb
E--0-----0-----0------1------1--------1--
B--0-----0-----2------1------1--------3--
G--1-----1-----2------2------2--------3--
D---------------------3--------------------
A---------------0-------------0--------1--
E--0-----4----------------------------------
    G     G/B     C         A       A/C#      D
E--3----3-----0-------0------0-------2----
B--0----0-----1-------2------2-------3----
G--0----0-----0-------2------2-------2----
D-------------------------------------0----
A--------2-----3------0------4-------------
E--3----------------------------------------



Você pode conferir mais categorias de Acordes em outras
postagens.