Violão e Guitarra: Acordes Diminutos ( D#°, F°, G°, A#°, B°, C#°, Eb°, E°, Gb° ...)..

By Jeffão Peres


Acordes Diminutos
Podemos utilizar basicamente três desenhos
para representar os acordes diminutos.
Através destes três padrões é possivel obter
todos os tons.
Ex.
O primeiro desenho é com a Tônica na 4° corda
   D#°            F°            G°             A#°           B°
E--2----------4----------6-----------9---------10--
B--1----------3----------5-----------8----------9--
G--2----------4----------6-----------9---------10--
D--1----------3----------5-----------8----------9--
A---------------------------------------------------
E---------------------------------------------------
O segundo desenho é com a Tônica na 5° corda
    B°            C#°          Eb°             E°             G°
E---------------------------------------------------
B--3---------5-----------7-----------8----------11--
G--1---------3-----------5-----------6-----------9--
D--3---------5-----------7-----------8----------11--
A--2---------4-----------6-----------7----------10--
E----------------------------------------------------
O terceiro desenho é com a Tônica na 6° corda
    G°         A°           A#°             Db°           E°
E--------------------------------------------------
B--2-------4----------5-----------8-----------11--
G--3-------5----------6-----------9-----------12--
D--2-------4----------5-----------8-----------11--
A-------------------------------------------------
E--3-------5----------6-----------9-----------12--



Você pode conferir mais categorias de Acordes em outras
postagens.

Nenhum comentário:

Postar um comentário