VÍDEO AULAS

PARA ASSISTIR AULAS DE: VIOLÃO; GUITARRA; TECLADO E BAIXO, VÁ NOS MARCADORES: DICAS

Contra Baixo: Acorde com Quinta - I, V e VIII ( C(5), D(5), E(5), F(5), G(5), A(5), B(5) )

By Jeffão Peres


Baixo I, V, VIII
Por não ter o III grau, que define a tonalidade
maior e menor, o Baixo I, V, VIII pode ser usado
sobre qualquer acorde que não tenha a 5° alterada
Exemplo de acordes com 5° alterada:
5+, 5#, 5b, 5-, 5dim, 5aug
Nos outros formatos, mesmo aqueles com outros
graus com: 7°, 9°, 11° etc...pode-se utilizar o 
Baixo I,V,VIII.
Modelo no braço: I  V   VIII


       C(5)                    D(5)                  E(5)
G------------5----------------7----------------9-------
D-------5-----------------7---------------9------------
A--3-----------------5----------------7----------------
E--------------------------------------------------------
         F(5)              G(5)                A(5)             B(5)
G-----------------------------------------2----------4-
D-----------3--------------5---------2-----------4----
A------3---------------5---------0------------2-------
E--1---------------3-----------------------------------