VÍDEO AULAS

PARA ASSISTIR AULAS DE: VIOLÃO; GUITARRA; TECLADO E BAIXO, VÁ NOS MARCADORES: DICAS

Tablatura: Chord Melody 22 : Te agradeço ( Acorde - Melodia - Solo - Violão e Guitarra)

Te agradeço
By Jeffão Peres

E------4--4--2----- 2--0------4--4--7--5--4--2------7--7--7--7--9-
B--0---5-----5--5--2------0--5-----------------4--0--5---------------
G------4-----4----- 2----------4---------------- 4------4--------------
D--------------------------------------------------------------------------
A--------------------0-----------------------------2---------------------
E------0-----0-----------------0-------------------------0--------------

E--7--5--5--7--5-----4--4--4--7--5--4--2----5--4--2--2--0------0-
B--5--2---------5--0--5--------------------4---------------2--0--2-----
G--4--2--------6------4--------------------4--4------------2--1--------
D----------------------------------------------------------------------------
A-----0---------0----------------------------2-----------------------------
E--4-------------------0--------------------------------------0--0--------

E--2--0--2--0--7---------2--0--2--0--7--4--5--7--7--7--7--7--7---
B--2--2--2--2--5-----5--2--2--2--2--5----------5---------5----------
G--2--2--2--2--4--6-----2--2--2--2--4----------4---------4----------
D------------------------------------------------------------------0---------
A--0------0-----------------0------2-------------------------------------
E-----------------0-------------------------0---------0-------------------

E--7--7--9--7---9--9--9--9--9---9--11--12--12--11--9--7--4-----
B--7---------5---10-------10-----10------------10------------9--5--7-
G--7---------4---9---------9-------9--------------9-------------9--4-----
D------------------------------------------------------------------------------
A------------------0--------11-------9--------------------------------------
E--7---------4--------------------------------------0-------------7--0----

E------12--12--11--9--7--4----------12--11--9--7--4--2--0----- 0-
B--5-------10------------9--5--7---5--10----------5--3------2---2----
G--6--------9------------9--4-------6---9-----------4--2----- 4--------
D--7----------------------------------7---9-----------6--------------------
A--0-------0-------------------------0--------------------2------0--------
E-------------------------0--4----------------------------------------------

E-------------
B---7---5----
G---6---4----
D---7---6----
A-------------
E---0---0----

Mais temas em Tablatura Chord Melody que você pode conferir em 
outras postagens:
Pomp and circumstance - Love me tender - Eu navegarei - Wave -
Pour Elise - Mais perto quero estar - Buscai primeiro - Not of this world -
Escorregando - Minueto - Nona Sinfonía - Jesus - Jazz blues 1 - Samba
de uma nota só - A Ele a glória ( porque Dele e por Ele ) - Vem! esta é
a hora - Oceano - O Barquinho - Sampa - Te agradeço - Meu bem 
querer - Garota de Ipanema - Eu sei que vou te amar - Carinhoso -
Coração de estudante - Este é o meu respirar - Assim como a corça -
A pantera cor de rosa - Em espírito e em verdade - Ele é exaltado -
Gente humilde - Poderoso Deus - Aclame ao Senhor - Santo! Santo!
Santo! cc9 - Yesterday - Over the rainbow - Os flintstones - Love of my
life - Quão preciosa são as horas - Pela luz dos olhos teus - My way -
Dei graças - Tristesse - Olha pra mim - Against all odds - True colors -
Heaven - Sonho de amor - Quanto amor - I want to know what love is -
Sou feliz com Jesus - Tears in heaven - Nos galhos secos - You'll be
in my heart