VÍDEO AULAS

PARA ASSISTIR AULAS DE: VIOLÃO; GUITARRA; TECLADO E BAIXO, VÁ NOS MARCADORES: DICAS

Tablatura: Chord Melody 26 : Carinhoso ( Acorde - Melodia - Solo - Violão e Guitarra)

Carinhoso
By Jeffão Peres

E----------------------------------------------------------------------------
B----------------------------------------------------------------------------
G--2--0-----2------------------2-------------2--------2---0-----2--------
D--------3--------3---------3--------------3----------3------3---------3--
A--------------3-----3---4---------4---5---------5---4--------------3-----
E------------1-----------------------------------------------------1---------

E------------------------------------------------------------------------------
B---------------------------------1--0------1------------------1-----------1-
G-----------2------------2-------1-----2---------2--------2------------2----
D--------3------------3----------0-------------2-----2--3---------3--4-------
A--3--4--------4--5---------5-------------0----------------------------------
E---------------------------------0---------------------------------------------

E---------------0--------------------------------------------------3--1-------
B-----1--0-----1------1------------1------------1-----5--4--5--3------5--3-
G-----2-----2--2---2------------2------------2--------6-------- 2------4----
D--4--3-------------------2--3---------3--4--------4--5--------0------ 3----
A---------------0---------------------------------------0---------------------
E--------------------------------------------------------------------------3---

E--3----------------1---------------------------------------------------------
B-----3------3--1------1------------3----------------------------------------
G-----3--5---2---------2--3--3--2-----2--0--2--0------2--2--3---0------0-
D-----5------1---------3------4--------0------2-----3---3--1--3-- 2--3----
A-----3----------------1------5--------1------3--------------------3-------
E-------------1--------------------------3-----------------1--2--3----------

E-------0--1--0---------------------------------------------------------------
B-----------------3--1--3--1--0-----0-------------------0--1--0-----0-------
G----------------------------------2-----2--0-----0--2------1-----2-----2----
D--3--------------------------------------------3------------0----------------
A--3--------------------------------------------5-------------------------0---
E--1----------------------------------------------------------0----------------

E------------------0----------------------------0----------------------------
B--------0--1--3-1--3--1--0------------0--3-----3----1--0---------1--2--
G-----2-----------0------------2--0--2-----2-------2--0-----2--0--0--0--
D--2-----------------------------------------0----------0------------2--2--
A-----------------3---------------------------------------------------3--4--
E---------------------------------------------2-----------3------------------

E----- 0---1--0------------------------------------------------------------
B--3--1---1-----3--1---------------0--5--3--1----------------------------
G--2--3---2-----------2---------1-----4--3--3--3--2--0--2--3--2--2--2-
D--3------3--------------3---2--------2--3--3--2----------------3--2----
A--5----------------------------------------------3---------------3--4----
E------0----------------------0--------4--3--3-------------------1--------

E--1--0--1--0----------------------------------------------------1---------
B--1--2---------3--1--3--1------------------------------3--6---1----------
G--2--0---------2--2--------3---2--3--2--0--0--2--3--4-------2--2--1-2-
D--0------------3--1--------3---4---------0------------3-------3--0-------
A-----0----------------------1---5---------1-------------------------------
E-------------------1-----------------------3------------4-----------------

E----------------
B--1------------
G--3--0--2-----
D--3--2-----3--
A-----3-----3--
E--3---------1-

Mais temas em Tablatura Chord Melody que você pode conferir em 
outras postagens:
Pomp and circumstance - Love me tender - Eu navegarei - Wave -
Pour Elise - Mais perto quero estar - Buscai primeiro - Not of this world -
Escorregando - Minueto - Nona Sinfonía - Jesus - Jazz blues 1 - Samba
de uma nota só - A Ele a glória ( porque Dele e por Ele ) - Vem! esta é
a hora - Oceano - O Barquinho - Sampa - Te agradeço - Meu bem 
querer - Garota de Ipanema - Eu sei que vou te amar - Carinhoso -
Coração de estudante - Este é o meu respirar - Assim como a corça -
A pantera cor de rosa - Em espírito e em verdade - Ele é exaltado -
Gente humilde - Poderoso Deus - Aclame ao Senhor - Santo! Santo!
Santo! cc9 - Yesterday - Over the rainbow - Os flintstones - Love of my
life - Quão preciosa são as horas - Pela luz dos olhos teus - My way -
Dei graças - Tristesse - Olha pra mim - Against all odds - True colors -
Heaven - Sonho de amor - Quanto amor - I want to know what love is -
Sou feliz com Jesus - Tears in heaven - Nos galhos secos - You'll be
in my heart