VÍDEO AULAS

PARA ASSISTIR AULAS DE: VIOLÃO; GUITARRA; TECLADO E BAIXO, VÁ NOS MARCADORES: DICAS

Tablatura: Chord Melody 25 : Eu sei que vou te amar ( Acorde - Melodia - Solo - Violão e Guitarra)

Eu sei que vou te amar
By Jeffão Peres

E---------------------------------------------------------------------
B------0---0---0---0---0-------0---1---0------1---1---1---1---1--
G--0---0----------------0---2--------------2---2--------------------
D------2----------------2---1-------------------0--------------------
A------3----------------3---------------------------------------------
E-----------------------------------------------------------------------

E-----------------------------------------------------0-----------0---0--
B--0---1---3---1---0--3---3---3---3---3---1---3-----3---1----1-------
G--0--------------------3----------------3---3------------------2-------
D--3--------------------3----------------3---2------------------3-------
A---------------------------------------- 3------------------------------
E--3--------------------3--------------------2--------------------------

E---3---1---0------ 0---0----3----------------1--------------------------
B---------------3---3--------0---1---0--------1---0---------- 5---5--6--
G-------------------1--------0------- 2---2--- 2------2---0---3------ 6--
D-------------------3-----------------1--------0------3-------5-------5--
A----------------------------3---------------------------------------------
E------------------------------------------------------3------- 6-------5--

E-------------------------------------------------------------------------
B--5---3---3---3---3---3---3---4---4---4--4--4-------0--0--0--0--0--
G------1-------------------------4--------------4----0--0------------0--
D------3-------------------------3--------------3-------2------------2--
A--------------------------------------------------------3------------3--
E------4-------------------------3---------------3-----------------------

E---5---7---8---7---5--------------------------------3---------------------
B---7--------------------8---8---8---8---8---5---6-----6---5-------------
G---5--------------------7----------------7---3------------------5--5--5--
D------------------------8----------------8---5------------------3---------
A---6--------------------5----------------5---4------------------3---------
E----------------------------------------------------------------- 4---------

E----------------------------------------
B---------------1---3---1---0---3---1--
G--5---5---4--------------------1---4--
D------3---3--------------------3---2---
A------3---2--------------------2---3---
E------4---3-----------------------------

Mais temas em Tablatura Chord Melody que você pode conferir em 
outras postagens:
Pomp and circumstance - Love me tender - Eu navegarei - Wave -
Pour Elise - Mais perto quero estar - Buscai primeiro - Not of this world -
Escorregando - Minueto - Nona Sinfonía - Jesus - Jazz blues 1 - Samba
de uma nota só - A Ele a glória ( porque Dele e por Ele ) - Vem! esta é
a hora - Oceano - O Barquinho - Sampa - Te agradeço - Meu bem 
querer - Garota de Ipanema - Eu sei que vou te amar - Carinhoso -
Coração de estudante - Este é o meu respirar - Assim como a corça -
A pantera cor de rosa - Em espírito e em verdade - Ele é exaltado -
Gente humilde - Poderoso Deus - Aclame ao Senhor - Santo! Santo!
Santo! cc9 - Yesterday - Over the rainbow - Os flintstones - Love of my
life - Quão preciosa são as horas - Pela luz dos olhos teus - My way -
Dei graças - Tristesse - Olha pra mim - Against all odds - True colors -
Heaven - Sonho de amor - Quanto amor - I want to know what love is -
Sou feliz com Jesus - Tears in heaven - Nos galhos secos - You'll be
in my heart