VÍDEO AULAS

PARA ASSISTIR AULAS DE: VIOLÃO; GUITARRA; TECLADO E BAIXO, VÁ NOS MARCADORES: DICAS

Tablatura: Chord Melody 24 : Garota de Ipanema ( Acorde - Melodia - Solo - Violão e Guitarra)

Garota de Ipanema
By Jeffão Peres

E--3---3---0---0--0-----3--3--0---0---0------3---3--------------
B--3-------------------3--3-------------------3---5------5---5--5--
G--2-----------------------2-----------------------4------------------
D------------------------------------------------------------------------
A------------------------------------------------------------------------
E--1------------------------1-----------------------3------------------

E-------3---3-------------------------------------------------------------
B--3---5-------5---5---5--3--6---6---3---3---3------5---5----------
G------4-------------------------3--------------------5---3-------5---5--
D---------------------------------3-------------------------2-----------2--
A------------------------------------------------------------3-----------4--
E------3-------------------------3-----------------------------------------

E----------------1---2---1-----1---------------4---5---4---2---4---2--
B-----------1---2-----------4-----4--2---4---2--------------------------
G--5---3--2---3----------------------2-------2--------------------------
D-----------2--------------------------1-----------------------------------
A---------------------------------------2-----------------------------------
E-----------1---2------------------------------2---------------------------

E-----------5---6---5-----5---------------5---6--8----------------------
B--5---7---6-----------8----8---6---8-----------5-----------5---6--8-
G--5---5---7---------------------7----------------5---5---7-------------
D--5---4-------------------------8-----------------------------------------
A--0---5-------------------------6----------------0-----------------------
E-----------6---------------------------------------------------------------

E--4---5---6------------------------2----3--
B--5---4---3-----------3---5---6--3----2--
G--5---5---3---3---5---------------3----3--
D--4---0-----------------------------2-------
A-------------------------------------------3--
E-----------3---------------------------------

Mais temas em Tablatura Chord Melody que você pode conferir em 
outras postagens:
Pomp and circumstance - Love me tender - Eu navegarei - Wave -
Pour Elise - Mais perto quero estar - Buscai primeiro - Not of this world -
Escorregando - Minueto - Nona Sinfonía - Jesus - Jazz blues 1 - Samba
de uma nota só - A Ele a glória ( porque Dele e por Ele ) - Vem! esta é
a hora - Oceano - O Barquinho - Sampa - Te agradeço - Meu bem 
querer - Garota de Ipanema - Eu sei que vou te amar - Carinhoso -
Coração de estudante - Este é o meu respirar - Assim como a corça -
A pantera cor de rosa - Em espírito e em verdade - Ele é exaltado -
Gente humilde - Poderoso Deus - Aclame ao Senhor - Santo! Santo!
Santo! cc9 - Yesterday - Over the rainbow - Os flintstones - Love of my
life - Quão preciosa são as horas - Pela luz dos olhos teus - My way -
Dei graças - Tristesse - Olha pra mim - Against all odds - True colors -
Heaven - Sonho de amor - Quanto amor - I want to know what love is -
Sou feliz com Jesus - Tears in heaven - Nos galhos secos - You'll be
in my heart