VÍDEO AULAS

PARA ASSISTIR AULAS DE: VIOLÃO; GUITARRA; TECLADO E BAIXO, VÁ NOS MARCADORES: DICAS

Tablatura: Chord Melody 23 : Meu bem querer ( Acorde - Melodia - Solo - Violão e Guitarra)

Meu bem querer
By Jeffão Peres

E----------------------------------------------------------------------
B-------0---2---2------2---3---2-------0----------------------------
G---2-----------2---4------4-------4---2---2---1------1---2---4---
D---2-----------2---4------4-----------2-----------4---2-------4---
A---0-----------0---0------0-----------0---------------0-------0---
E---------------------------------------------------------------------

E---------------------------------------------------------------------
B-----------------------3-------0---2---2-------2---3---2-------0--
G---2---1------1-------4---2-----------2---4-------4-------4---2--
D-----------4------2---4---2-----------2---4-------4------------2--
A------------------0---0---0-----------0---0-------0------------0--
E---------------------------------------------------------------------

E--------------------------------------------------------------------4-
B-----------------------------------------------3-----------2---2---5-
G---2---1------1---2---4---2---1-----1----- 4---2---4-------2--4--
D-----------4--2--------4----------4-----2---2---4-----------4------
A--------------0--------0-----------------0----------------------- 4--
E----------------------------------------------4----2-----------2-------

E---------------2---0---------1---1---1-----------2--------------------2--
B---5----------2------0------0--------0---5---2-------0-------2---2-----
G------6-------2---------2---2--------1---4---4-------1---2-- 0---2-----
D----------7---0-------------0--------0---2---2-------0-------2---1-----
A-------------------------------------------4------------------------------
E------------------------------------------------3-------1-------0--------

E---------------------------------------------------------
B-----------2---2---2---2---2---3------2--------------
G---4---2--2---2---2---2---2-------4-----2---4---2---
D---3------2---2---2---2---2----------------------2----
A---5------4---2---0-------------------------------0----
E------------------------2---0----------------------------

Mais temas em Tablatura Chord Melody que você pode conferir em 
outras postagens:
Pomp and circumstance - Love me tender - Eu navegarei - Wave -
Pour Elise - Mais perto quero estar - Buscai primeiro - Not of this world -
Escorregando - Minueto - Nona Sinfonía - Jesus - Jazz blues 1 - Samba
de uma nota só - A Ele a glória ( porque Dele e por Ele ) - Vem! esta é
a hora - Oceano - O Barquinho - Sampa - Te agradeço - Meu bem 
querer - Garota de Ipanema - Eu sei que vou te amar - Carinhoso -
Coração de estudante - Este é o meu respirar - Assim como a corça -
A pantera cor de rosa - Em espírito e em verdade - Ele é exaltado -
Gente humilde - Poderoso Deus - Aclame ao Senhor - Santo! Santo!
Santo! cc9 - Yesterday - Over the rainbow - Os flintstones - Love of my
life - Quão preciosa são as horas - Pela luz dos olhos teus - My way -
Dei graças - Tristesse - Olha pra mim - Against all odds - True colors -
Heaven - Sonho de amor - Quanto amor - I want to know what love is -
Sou feliz com Jesus - Tears in heaven - Nos galhos secos - You'll be
in my heart