VÍDEO AULAS

PARA ASSISTIR AULAS DE: VIOLÃO; GUITARRA; TECLADO E BAIXO, VÁ NOS MARCADORES: DICAS

Contra Baixo: Alternado I e V ( C, Dm, G, Am, E, G7+, Em7, Am7, D7(9) )

By Jeffão Peres
Baixo alternado I, V
O baixo alternado I,V é muito utilizado para
acompanhar estilos como Samba, Bossa, Marcha,
Rumba e Country
Veremos exemplos de alguns desses estilos
Country      V    notas de passagem
      C             Dm           G            C
G-------------------------------------------------
D-------------------------------------------------
A--3---3--3-4-5---5---------5----0-2-3----3--
E----3------------5----5-4-3---3---------3-----

Rumba
      Am           Dm          E
G--------------------------------------
D--------------------------------------
A-----7-7------5---------------2-2---
E--5---------------5-5------0--------- 

Samba
    G7+         Em7       Am7       D7(9)
G--------------------------------------------
D--------------------------------------------
A-------5----------2-----0--0-------5--5---
E--3--3-------0--0------------0----------5--