VÍDEO AULAS

PARA ASSISTIR AULAS DE: VIOLÃO; GUITARRA; TECLADO E BAIXO, VÁ NOS MARCADORES: DICAS

Tablatura: Chord Melody 30 : Assim como a corça ( Acorde - Melodia - Solo - Violão e Guitarra)

Assim como a corça
By Jeffão Peres

E----------------------------------0---0---2---2---0-------7---5---5-
B--3---3---3---3---3------3---2-------------3-------3---8-----------
G-------2----------------2-------2-------------2------------7-----------
D-------0-----------------------------------------------------5-----------
A----------------------------------0-------------2------------------------
E---------------------------------------------------------------------------

E-------5---------------------2---2----0-------------0---0----0----2--
B--8---7-------------3---5-------2--------3----3-------2----------3--
G-------7---7---7---4------------2--------------0-------2----------2--
D-------0-------------5---------------------------0-------------------4--
A----------------------0------------0----------------------0--------------
E---------------------------------------------------3-----------------------

E---2---2---3---7----5------------------
B-------------3---8----7--------5---5---  Volta no começo
G-------------4---7----7---7--------6---    pula esta chave
D-------------5---5----0-------------7---    e toca a partir
A---------------------------------------0---     da próxima
E-------------------------------------------

E--2---2---3---7---5---10---10---9----7----------------------------------
B------------3---8---7---7----------10--------10---0---2---3----2---0--
G------------4---7---7---7-----------9-------------------------4----0-------
D------------5---5---0---0--------------------------------------4----0-------
A---------------------------------------0--------------------------2------------
E-------------------------------------------------------------------------3------

E-----------------------------------------------------------------------7---9---
B--------------------------0---2---3---3---3----3---3---2----7------------
G--2---0-------------2------------2--------0-------------2------------------
D--0--------4---2-----------------0--------0-------------2------------------
A--0-------------0-----------------2-----------------------0------------------
E--2------------------------------------------3---------------------------------

E--10---9---7---5-------------------7---9---10---10---10---10---10---9-
B---7----8--------7----8---7---5--------------7-----------8----------------10-
G---7----7--------7-------------6--------------7-----------7-----------------9--
D---9--------------0-------------7--------------9----------------------------------
A----------------------------------0----------------------------------------------0-
E-------------------------------------------------------------------------------------

Mais temas em Tablatura Chord Melody que você pode conferir em 
outras postagens:
Pomp and circumstance - Love me tender - Eu navegarei - Wave -
Pour Elise - Mais perto quero estar - Buscai primeiro - Not of this world -
Escorregando - Minueto - Nona Sinfonía - Jesus - Jazz blues 1 - Samba
de uma nota só - A Ele a glória ( porque Dele e por Ele ) - Vem! esta é
a hora - Oceano - O Barquinho - Sampa - Te agradeço - Meu bem 
querer - Garota de Ipanema - Eu sei que vou te amar - Carinhoso -
Coração de estudante - Este é o meu respirar - Assim como a corça -
A pantera cor de rosa - Em espírito e em verdade - Ele é exaltado -
Gente humilde - Poderoso Deus - Aclame ao Senhor - Santo! Santo!
Santo! cc9 - Yesterday - Over the rainbow - Os flintstones - Love of my
life - Quão preciosa são as horas - Pela luz dos olhos teus - My way -
Dei graças - Tristesse - Olha pra mim - Against all odds - True colors -
Heaven - Sonho de amor - Quanto amor - I want to know what love is -
Sou feliz com Jesus - Tears in heaven - Nos galhos secos - You'll be
in my heart