VÍDEO AULAS

PARA ASSISTIR AULAS DE: VIOLÃO; GUITARRA; TECLADO E BAIXO, VÁ NOS MARCADORES: DICAS

Tablatura: Chord Melody 27 : Coração de estudante ( Acorde - Melodia - Solo - Violão e Guitarra)

Coração de estudante
By Jeffão Peres

E----------------------------------------------------------------------
B--3-------------------1-------------------------1--3--3-------------
G--3--5--5--5--5--5--2--2--0---------0--2--3-------3--3--2--0---
D--3-------------------3--------3---3------------------3--3----------
A--3---------------------------------3--------------------------------
E-----------------------1-------------1-----------------3--3----------

E-------------------1--1--------------------------------------------1---
B------------1--3----- 3--3---3-----------------------------------1----
G--0--2--3------------0------ 3---5---5------------ 3--2--0-----2----
D--0-------------------------- 3-------5--8--8--8---3---------3--1----
A--1------------------1-------3-------5------4------5---------5-------
E--3------------------------------------5------5-------------------------

E--3---5---8--8--10--8--5----------------5--8--8--10--8--5--3--
B------4--10----------6-----8--6---6--8-----------------6--6--5---
G------5---8----------7-------------6---------------------5--5--5--
D------3-----------------------------7-------------------------------
A----------8----------8-------------8---------------------8--8------
E------------------------------------------------------------------0--

E-----------------------------------------------------  Voltar no início
B--6--5--3---------3--3--3--1----- 6--3----3---3--- Pular esta chave
G--5---------5--5-----3--------3---3-----3-----3---   de Tablatura
D--3------------------ 3------------3------------3---     e ir para a
A--5---------------------------------------------1---       próxima
E----------------------1------------3----------------

E----------------------------------------------0---1--0------3--1--0--
B--6--5--3--------3---3---------------1--3------3-----3---1---------
G--5--------5--5------3--5--0--2--3-------------3---------0---------
D--3------------------ 3-----2--------------------0-------------------
A--5------------------3------3----------------------------------------
E--------------------------------------------------------------0-------

E---5---3-------
B---6-------6---
G---5-----------
D---3-----------
A---------------
E---------------

Mais temas em Tablatura Chord Melody que você pode conferir em 
outras postagens:
Pomp and circumstance - Love me tender - Eu navegarei - Wave -
Pour Elise - Mais perto quero estar - Buscai primeiro - Not of this world -
Escorregando - Minueto - Nona Sinfonía - Jesus - Jazz blues 1 - Samba
de uma nota só - A Ele a glória ( porque Dele e por Ele ) - Vem! esta é
a hora - Oceano - O Barquinho - Sampa - Te agradeço - Meu bem 
querer - Garota de Ipanema - Eu sei que vou te amar - Carinhoso -
Coração de estudante - Este é o meu respirar - Assim como a corça -
A pantera cor de rosa - Em espírito e em verdade - Ele é exaltado -
Gente humilde - Poderoso Deus - Aclame ao Senhor - Santo! Santo!
Santo! cc9 - Yesterday - Over the rainbow - Os flintstones - Love of my
life - Quão preciosa são as horas - Pela luz dos olhos teus - My way -
Dei graças - Tristesse - Olha pra mim - Against all odds - True colors -
Heaven - Sonho de amor - Quanto amor - I want to know what love is -
Sou feliz com Jesus - Tears in heaven - Nos galhos secos - You'll be
in my heart