VÍDEO AULAS

PARA ASSISTIR AULAS DE: VIOLÃO; GUITARRA; TECLADO E BAIXO, VÁ NOS MARCADORES: DICAS

Tablatura: Chord Melody 32 : Ele é exaltado ( Acorde - Melodia - Solo - Violão e Guitarra)

Ele é exaltado
By Jeffão Peres

E--3--2------3--2-------3--2------3--2-------0---0--2--3---7----5--
B--3------3----------3---3------3---------3---1-----------0--------3---
G--0----------------------0----------------------0----------0--------2---
D----------------------------------------------------------------------------
A--------------------------2----------------------3-------------------------
E--3----------------------------------------------------------0--------2---

E--3--2-----3--2------3--2-----3--2-------0---2--3---5---7---7------
B--3-----3---------3---3-----3---------3---1---0--1---3-------10------
G--0--------------------0--------------------0---0--0---2--------9------
D-----------------------------------------------------------0----------------
A------------------------2--------------------3---2--0---------------------
E--3------------------------------------------------------------------0-------

E---8---7-------------------------7----7---7----10---10--10-------8---7---
B---5---5---8---10--------------8---------------8--------------8----5---5--
G---5---5---------7---7---7-----7---------------7--------------9----5---5--
D--------5---------7-------7-------------------------------------10--------5--
A---0--------------9--------------10-----------------------------------0------
E----------------------------8----------------------7--------------8-------------

E---8---5--------------------------------------0---------------------------
B--------7---8--10----0---0---0---3---3---0----3----1---0-------1--
G--------7--------7----0------------2--------2----4----2-------0---2--
D--------0--------7----0------------0--------------2----2------------2--
A------------------9---------------------------------------0---------------
E-------------0---------3------------2--------0----4------------------3---

E-------------------------------------------- --0----------------------------------
B--0-----1--0------1---0-----------0---3---0---3---1--0------1--0-------1--
G-----0--2-----0---2-------0---0-------2---2---4---2-----0---2------0---2-
D---------3----------0-----------0-------0--------2---2----------2----------3-
A--------------------------------------------------------0-------------------------
E---------1----------2-----------3-------2----0---4--------------3----------1-

E-----------------------
B--0-----1--0---------
G-----0--2-----0---0--
D---------0---------0--
A------------------------
E---------2---------3--

Mais temas em Tablatura Chord Melody que você pode conferir em 
outras postagens:
Pomp and circumstance - Love me tender - Eu navegarei - Wave -
Pour Elise - Mais perto quero estar - Buscai primeiro - Not of this world -
Escorregando - Minueto - Nona Sinfonía - Jesus - Jazz blues 1 - Samba
de uma nota só - A Ele a glória ( porque Dele e por Ele ) - Vem! esta é
a hora - Oceano - O Barquinho - Sampa - Te agradeço - Meu bem 
querer - Garota de Ipanema - Eu sei que vou te amar - Carinhoso -
Coração de estudante - Este é o meu respirar - Assim como a corça -
A pantera cor de rosa - Em espírito e em verdade - Ele é exaltado -
Gente humilde - Poderoso Deus - Aclame ao Senhor - Santo! Santo!
Santo! cc9 - Yesterday - Over the rainbow - Os flintstones - Love of my
life - Quão preciosa são as horas - Pela luz dos olhos teus - My way -
Dei graças - Tristesse - Olha pra mim - Against all odds - True colors -
Heaven - Sonho de amor - Quanto amor - I want to know what love is -
Sou feliz com Jesus - Tears in heaven - Nos galhos secos - You'll be
in my heart