VÍDEO AULAS

PARA ASSISTIR AULAS DE: VIOLÃO; GUITARRA; TECLADO E BAIXO, VÁ NOS MARCADORES: DICAS

Tablatura: Chord Melody 31 : Em espírito e em verdade ( Acorde - Melodia - Solo - Violão e Guitarra)

Em espírito e em verdade
By Jeffão Peres

E-------------0-----------------0-------------------------
B--0--1--3-----3--0--1--3------3--3--3--3--1--1--
G---------0-----------------2-----------------0------0--
D---------0-----------------0-----------------2------2--
A----------------------------2-----------------3------3--
E---------3------------------------------------------------
    1° final
E----------------------     
B--1--3--1--0--0---       volta no nício 
G--0------0----------        pula o 1° final 
D--0------0----------     e continua a partir
A---------------------             do 2° final
E----------3---------        
    2° final
E----------------------
B--1--3--1--0--0---
G--2------0-----------
D--1------0-----------
A--3-------------------
E----------3-----------

E--0--2--3----------3-------2---3---3--3--2--0--0-------
B--1--0--5--5--7--3---5-------1-------1--------- 0----3--
G--2--2--4--4------0---4------ 0-------0--------- 0-------
D------1--2----------0---5---------------0-------------------
A--------------6-----------4------0----------------------------
E--2----------------------------------------------------3-------

E--0--2--3--7--5--3------2----3---3--3--0- 7--5---------5-
B--1--0--5----------3---5-------1-------2-----5--5-----8-----
G--2--2--4--4------0---4------ 0-------0-----6--5--7--------
D------1--2----------0-- 5--------------------- 5---0-----------
A--------------6----------4-------0--------0----------------------
E--2----------------------------------------------------------------

E--8---7---3---7---5-------3---5---8---7------7----------------------
B--8---8---5---5---3---3-------3---5-------8-------10---10---10--
G--9---7---5---5---2---2-------2---5-------5--------7----------------
D-10--9--------5---0---0-------0------------5--------7----------------
A------------0---------------------------------------------9----------------
E----------------------------------------0-------0--------------------------

E--7---8---7---------3---3---3---2---3---7-----------2---3---5---3-
B--7------------10---3-------------3-------8---5---8--1--------3------
G--8------------------0-------------0-------7---5-------0--------2------
D-------------------------------------0-------0---5-------0--------4------
A---------------------------------------------------0------------------------
E--7------------------0------------------------------------------------------

E--7---7---7-------7---10--------------------7---------------2--3--5--3--
B--8------------10-----------8---8---7---8------5---8---8--1--5--3--3--
G--7-------------7------------7-------7-----------7--------5--2--5--2--4--
D--5-------------7------------9-------7-----------5--------5--0------4--5--
A-----------------9------------7------------------------------0-----------------
E----------------------------------------7-----------8----------------0---------

Mais temas em Tablatura Chord Melody que você pode conferir em 
outras postagens:
Pomp and circumstance - Love me tender - Eu navegarei - Wave -
Pour Elise - Mais perto quero estar - Buscai primeiro - Not of this world -
Escorregando - Minueto - Nona Sinfonía - Jesus - Jazz blues 1 - Samba
de uma nota só - A Ele a glória ( porque Dele e por Ele ) - Vem! esta é
a hora - Oceano - O Barquinho - Sampa - Te agradeço - Meu bem 
querer - Garota de Ipanema - Eu sei que vou te amar - Carinhoso -
Coração de estudante - Este é o meu respirar - Assim como a corça -
A pantera cor de rosa - Em espírito e em verdade - Ele é exaltado -
Gente humilde - Poderoso Deus - Aclame ao Senhor - Santo! Santo!
Santo! cc9 - Yesterday - Over the rainbow - Os flintstones - Love of my
life - Quão preciosa são as horas - Pela luz dos olhos teus - My way -
Dei graças - Tristesse - Olha pra mim - Against all odds - True colors -
Heaven - Sonho de amor - Quanto amor - I want to know what love is -
Sou feliz com Jesus - Tears in heaven - Nos galhos secos - You'll be
in my heart