VÍDEO AULAS

PARA ASSISTIR AULAS DE: VIOLÃO; GUITARRA; TECLADO E BAIXO, VÁ NOS MARCADORES: DICAS

Tablatura: Bass Melody 2 : Buscai primeiro ( Baixo - Melodia - Solo - Violão e Guitarra)

By Jeffão Peres


Buscai primeiro


E--0----0----1----3----0-------------------------0----1----3----1--
B------------------------------3----1----1----3------------------------
G-------------------------------------------------------------------------
D----------------------------------------------------------3--------------
A--3--------------------------------0------------------------------------
E-------------------0-------------------------------0--------------------


E--0----1----0-------------0----0----0----1----3----3---0-----------
B------------------3---3------------------------------------------3----1-
G---------------------------------------------------------------------------
D----------------------------------------------------------------------------
A--3-------------------2----3-------------------------------------------0-
E------------------3--------------------------------0-----------------------


E------------------0----0----1----3----1----0----1----0-------------
B--0----1----3------------------------------------------------3----1--
G-------------------------------------------------------------------------
D-----------------------------3------------------------------------------
A-----------------------------------------------3--------------------3---
E------------------0--------------------------------------------3--------


E--8----7----5----3----5---------3----5----7----8----7----5---3-
B------------------------------8------------------------------------------
G-------------------------------------------------------------------------
D------------------------------------5----4----5------------------------
A--------------0---------8---------------------------------------0------
E--8----0----------0---------8---------------------8----0----------0-


E--1----3---1----0----1----0-------------
B-----------------------------------3----1--
G---------------------------------------------
D--3-----------------------------------------
A------------------3---------------------3---
E-----------------------------------3---------