VÍDEO AULAS

PARA ASSISTIR AULAS DE: VIOLÃO; GUITARRA; TECLADO E BAIXO, VÁ NOS MARCADORES: DICAS

Escalas: Pentatônica blues ( FA#, SOL, LA, SI, DO#, RE, MI )

By Jeffão Peres

Escala Pentatônica (com blue note)
Obs. Blue note

FA#  
E-------------------------------------------------------2---5---
B----------------------------------------------2---5-------------
G--------------------------------2---4---5----------------------
D-----------------------2---4-----------------------------------
A------------2--3--4--------------------------------------------
E--2---5---------------------------------------------------------

SOL 
E----------------------------------------------------------6--8--9--10--
B-------------------------------------------------6---8--------------------
G--------------------------------3---5--6--7-----------------------------
D----------------------3---5-----------------------------------------------
A-------1--3--4--5-------------------------------------------------------
E---3-----------------------------------------------------------------------

LA 
E-------------------------------------------------3---5--
B--------------------------------------3--4--5----------
G-----------------------------2---5----------------------
D---------------------2--5-------------------------------
A----------3--5--6--------------------------------------
E---3--5-------------------------------------------------

SI 
E---------------------------------------------------2---5--
B---------------------------------------3---5--6-----------
G-------------------------------2--4------------------------
D--------------------2--3--4-------------------------------
A-----------2---5-------------------------------------------
E---2---5---------------------------------------------------

DO# 
E--------------------------------------------------0--2--3--4--
B------------------------------------------0--2------------------
G----------------------------------0--1--------------------------
D---------------------------2--4---------------------------------
A------------------2---4-----------------------------------------
E---0--2--3--4-------------------------------------------------

RE 
E-------------------------------------------------------1---3---4---5--
B----------------------------------------------1---3---------------------
G--------------------------------0---1---2------------------------------
D-----------------------0---3--------------------------------------------
A---------------0---3----------------------------------------------------
E---1---3--4------------------------------------------------------------

MI 
E-----------------------------------------------------------3---5---6---7--
B--------------------------------------------------3---5---------------------
G--------------------------------0---2---3---4-----------------------------
D-----------------------0---2------------------------------------------------
A------------0--1--2--------------------------------------------------------
E---0---3--------------------------------------------------------------------

Obs. Faça a volta com as mesmas notas da ída