VÍDEO AULAS

PARA ASSISTIR AULAS DE: VIOLÃO; GUITARRA; TECLADO E BAIXO, VÁ NOS MARCADORES: DICAS

Tablatura: Bass Melody 4 : Yesterday ( Baixo - Melodia - Solo - Violão e Guitarra)

By Jeffão Peres


Yesterday


E-------------------------------0---2---3---2---0---0-------------0----------------
B-----------------0---2---4--------------------------------3---1--------3---1---0-
G--2---0---0--------------------------------------------------------------------------
D-------------------------------------------------------2---0-------------0-----------
A--------------------------2-------------------------------------3---------------------
E------------3---2---------------------------0----------------------------------------

E---------------------------------------------------------
B-------1---0---0------------0----------------0---0--
G--2------------------2---0------2-------0------------
D---------------------------------------2----------------
A----------------------------------4-------3------------
E-------3--------3---2---0------------------------3--

E------------0---2---3---2---0---2---0------0------------0---2---3---2---0-
B--0---0------------------------------------3------0---0--------------------------
G-------------------------------------------------------------------------------------
D-------1---2---0-----------------0--------------------1---2---0----------------
A----------------------3------------------------------------------------3-----------
E--3-------------------------------------------------3------------------------------

E--2---0-----2---3-----------------------------
B----------3-----------3---1---0---------------
G-------------------------------------2---0---0-
D--0----------------------------------------------
A--------------------------------------------------
E------------------3---------------------------3--