VÍDEO AULAS

PARA ASSISTIR AULAS DE: VIOLÃO; GUITARRA; TECLADO E BAIXO, VÁ NOS MARCADORES: DICAS

Tablatura: Chord Melody 36 : Aclame ao Senhor ( Acorde - Melodia - Solo - Violão e Guitarra)

Aclame ao Senhor
By Jeffão Peres

E-----------------------------------5--5--5--4---------2----5--4--2----------5--4--2--
B--2--2--3--5--------------0----2----------2--5--2--3----3----------5--5--3----------
G--4---------4---1--1--2--1----2----------2----------2----2----------4------2----------
D--2---------2---2-------- -2---------------------------0----0----------6------0----------
A--0---------0---2--------------------------------------------------------4-----------------
E----------------0----------0----2----------0------------------------------------------------

E--0--0----------------------------------------------------------5--5--5--4-----------2---
B--2------5--3--2------0---0------0--2--3--5------------0---2----------2---5--2--3---
G--2------2------2--2--0---2--2--1--4------4---1--2---1---2----------2-----------2---
D----------2------2-----0---0------2--2------2---2-------2--4----------------------------
A-----------------------------------------0------0---2-----------------------------------0--
E--0------2------2------3---2------0--------------0-------0--------------0-----------------

E------5--4--2----------5--4--2--0--5--5--2--5---7---7---7-------5--5--4--5--5--4-
B------3----------5------3---------2--2--------------8---7---5---5--2----------2--------
G--2--2----------4------2---------2--2--------------7---7---4-------4----------2--------
D------0----------6--7--0-------------4--------------5-------------------------------------
A------------------4-----------------------------------------9-----------0-------------------
E-----------------------------------0---------------------------0-------------------2------

E--5--5--4--2--0--0--5--5--4--5---5--7---9--7-------7------5--5--4--5--5--4--5-
B--3---------0---------2----------2-----------7------10--9------2---------2----------3-
G--2--------1----------4----------2-----------7-----------9--9--2---------2----------2--
D--0-------------------------------------------0-------------------4---------------------0-
A------------------------0---------------------------------------------------------------------
E------------0----------------------2-----------------------0-----------------0-------------

E--5--4--2--0--2--4--2--0 -2--2--4--7-- --5--5--4--5--5-4--5--5--4--2--0--5--5--4-
B----------0---------5---------3------5----5--2---------2--------3---------0------2-----
G----------1---------4---------2------4--------4---------2-------2----------1------4----
D--------------------------------------------------------------------0------------------------
A-------------------------------------------------0-------------------------------------0-----
E----------0---------0---------2------4-------------------2-------------------0-----------

E--5--5--7--9--7-------7--5--5--4--5--5--4--5--5--4--2--0--4--5--
B--2---------7------10--9--2---------2----------3---------0---------2--
G--2---------7-----------9--2---------2----------2---------1---------4--
D-------------0---------------4--------------------0-------------------------
A--------------------------------------------------------------------------0---
E--2----------------------0-------------0---------------------0-------------

Mais temas em Tablatura Chord Melody que você pode conferir em 
outras postagens:
Pomp and circumstance - Love me tender - Eu navegarei - Wave -
Pour Elise - Mais perto quero estar - Buscai primeiro - Not of this world -
Escorregando - Minueto - Nona Sinfonía - Jesus - Jazz blues 1 - Samba
de uma nota só - A Ele a glória ( porque Dele e por Ele ) - Vem! esta é
a hora - Oceano - O Barquinho - Sampa - Te agradeço - Meu bem 
querer - Garota de Ipanema - Eu sei que vou te amar - Carinhoso -
Coração de estudante - Este é o meu respirar - Assim como a corça -
A pantera cor de rosa - Em espírito e em verdade - Ele é exaltado -
Gente humilde - Poderoso Deus - Aclame ao Senhor - Santo! Santo!
Santo! cc9 - Yesterday - Over the rainbow - Os flintstones - Love of my
life - Quão preciosa são as horas - Pela luz dos olhos teus - My way -
Dei graças - Tristesse - Olha pra mim - Against all odds - True colors -
Heaven - Sonho de amor - Quanto amor - I want to know what love is -
Sou feliz com Jesus - Tears in heaven - Nos galhos secos - You'll be
in my heart