VÍDEO AULAS

PARA ASSISTIR AULAS DE: VIOLÃO; GUITARRA; TECLADO E BAIXO, VÁ NOS MARCADORES: DICAS

Tablatura: Chord Melody 41 : Love of my life ( Acorde - Melodia - Solo - Violão e Guitarra)

Love of my life (Versão ao vivo - Violão e voz)
By Jeffão Peres

E----------------2------------------2---0-------0------0---------------------------
B--3---2---3---3---3---2----3---3---3---3------3------3---2------3------5---
G--2------------2---4-------------4---0-----------------------2------4------6---
D--0------------0---4----------------------------------------------------------------
A---------------------2-------------2--------------------------------0------0-------
E----------------------------------------0---------------------------------------------

E-------------------------2------------------2------------------------------------------
B------2---3---2---3---3---3---2----3---3--------12--------------------10-------
G------2---2------------2---4-------------4---------9----------9----------9--------
D-----------0------------0---4-----------------------12---12------12---12---12-
A--0--------------------------2-------------2---0---10---------------------9--------
E-----------------------------------------------------------------------------------------

E------------0------2-------4-------7------------------0-------------------------------
B------------0------0-------0-------0------------------2------------------------3---2-
G--9--------1------2-------4-------7----2---1---2---2---1--------------------2------
D------12---------------------------------2-----------------------6---4----4---4------
A-------------------------------------------0-------------0--------4--------------2------
E----------------0------0--------0--------------------------------2----------------------

E------2-----------0---0----------------------------------2-------------------------------
B--3------------------------3---2---0-------7---5---7---3---3---2---3---2---0---2--
G---------------------------4---2-------2---6------------2---4-------------2-----------
D----------4---2-----------2---2------------5------------0---4-------------4-----------
A---------------2---------------0------------0-----------------2-------------------------
E---------------0-----------4-------------------------------------------------2-----------

E-----------------------------------------------------2----0------------------------
B--2---3---2---0---0--------------------------3---3----0----------------3----3--
G-------0----------------2-----------------2--4----1----1---4---2---4-------2--
D-------0--------------------4---2---0---0---4----2---------2----------------0--
A------------------------------------------------2--------------0---------------------
E-------3------------2----------------3---2--------------0--------------------------

E--10--------9-------7------5--------------------------------------------------
B--12-------10------8------7-------12-----------------10-------------------
G--------------------------------------9---------9--------9----------9--------
D-------0--------0-------0------0---12---12-----12---12---12------12--
A--------------------------------------10-------------------9-------------------
E----------------------------------------------------------------------------------

E-----------------2----------2-----------------------------2---2-------3-----5------------
B--3--3--3--3------2--2------2---------------0--3----------3-------5-----7------2----
G--4-----------------2--------------2---0--2------------------2---------------------3----
D--4-----------------4-------------------0-------------0-------0---0------0-----0------4--
A--2-------------------------------------------------------------------------------------------
E---------------------2-------------------3----------------------------------------------------

E-----------------2-----------------------------------------------------------0--0--0---0--
B--3--3--3--3------2--2--2--2--2-----------2--0-------1---0-----------------------2--
G--4-----------------2-----------------4--2---2------2---2-------2---0--------------0--
D--4-----------------4-------------------------1-----------2------------2------------------
A--2----------------------------------------------------------------------2--------------0--
E---------------------2-------------------------1-----------2------------0-------------------

E--2---3---9-----------------------------------------------0-------5---0--2--3----------3--
B--3---5--10----7---5---7---5---7---8---7---5---3--------2-------1------0---0--1----
G--0---0---0---------------------------------------------------2-------2------0--------------
D------------------7---7---7---7---7---9---7---7---4-------2------------------------------
A--0---0---0-----5---4---5---4---5---7---5---5---2-------0--------0---------------------
E--------------------------------------------------------------------------------3-------------
                     H.
E-----3--------------10-------9-------7---9---5-------0--------2------4-------7-------
B-1------0---12----12------10-------8--10--7-------0--------0------0-------0-------
G---------0---12-----------------------------------------1--------2------4-------7-------
D---------0---12----------0-------0----------------0--------------------------------------
A----------------------------------------------------------------------------------------------
E---------3-----------------------------------------------------0--------0------0-------0--

E----------------------------------------------------------------------------------------------
B--2------3------5------8-------3---2---3---2---0---2---2----3---2---0---0--------
G--0------0------0------0-------4------------2------------------0-----------------2------
D--2------4------5------9-------4------------4------------------0----------------------4-
A------0------0------0------0---2-----------------------------------------------------------
E------------------------------------------------2------------------3------------2-----------

E----------------------2---0-------------------------3-------5---------2-------------------
B-----------------3---3---2----------------3---3---5-------7---------2---3---2------3-
G------------2---4---1---2---4---2---4------2-----------------------3---4-------4-----
D--2---0---0---4---2--------2----------------0--------0-------0----4---4--------------
A-----------------2--------0---0--------------------------------------------2--------------
E-------3---2---------------------------------------------------------------------------------

E-----------------------------------0--------
B--2------------2---3---3---3--------3---
G--2---4---2-------3---3---3--------2---
D--4-----------------2---2---2-------0--
A-------------------------0---1------------
E--2-----------------3----------------------

Mais temas em Tablatura Chord Melody que você pode conferir em 
outras postagens:
Pomp and circumstance - Love me tender - Eu navegarei - Wave -
Pour Elise - Mais perto quero estar - Buscai primeiro - Not of this world -
Escorregando - Minueto - Nona Sinfonía - Jesus - Jazz blues 1 - Samba
de uma nota só - A Ele a glória ( porque Dele e por Ele ) - Vem! esta é
a hora - Oceano - O Barquinho - Sampa - Te agradeço - Meu bem 
querer - Garota de Ipanema - Eu sei que vou te amar - Carinhoso -
Coração de estudante - Este é o meu respirar - Assim como a corça -
A pantera cor de rosa - Em espírito e em verdade - Ele é exaltado -
Gente humilde - Poderoso Deus - Aclame ao Senhor - Santo! Santo!
Santo! cc9 - Yesterday - Over the rainbow - Os flintstones - Love of my
life - Quão preciosa são as horas - Pela luz dos olhos teus - My way -
Dei graças - Tristesse - Olha pra mim - Against all odds - True colors -
Heaven - Sonho de amor - Quanto amor - I want to know what love is -
Sou feliz com Jesus - Tears in heaven - Nos galhos secos - You'll be
in my heart