VÍDEO AULAS

PARA ASSISTIR AULAS DE: VIOLÃO; GUITARRA; TECLADO E BAIXO, VÁ NOS MARCADORES: DICAS

Tablatura: Chord Melody 42 : My way ( Acorde - Melodia - Solo - Violão e Guitarra)

My way
By Jeffão Peres

E------2---0---2---0---2------2-------2---0---2---0-----------------3---2---3-
B------3-----------------2---5-----5---1----1------------5---4--------0-----------
G-2---2-----------------2--------------0----2-------------2---4---4---0-----------
D------0-----------------0--------------------0------------4---4--------------------
A-----------------------------------------0------------------2---6--------------------
E---------------------------------------------------------------------------0-----------

E--2---3---2---3---2---3---5----3---3---2---2---5---4---5---4---5--2--3--5-
B-------0----------------3------5------2------------2-----------------3-------------
G-------0----------------0--------------3------------2-----------------5------------
D-------1--------------------------------0------------0-----------------0------------
A-------------------------0------------------------------------------------------------
E----------------------------------------------------------------------------------------

E--5--3--2---5---3--3---2------3--2--------------------------2--3--5---5---7--5--4-
B--3-----------5-----------3--------------5--2--3--5--5---3--------------3---7---------
G--4-----------3-----------2--2----------4-------------3---2--------------2---6---------
D--5---------------------------------------5-------------5---4--------------0---0----------
A----------------------------0-------------0------------------5------------------------------
E---------------3-----------------------------------------3-----------------------------------

E--5---2---3---5---7--7--7--6--7---7---9---10--10--7--10--7---9----9---10--12-
B--3---3---1---3---8------------------8--------------8--------------10--10-------------
G--5---5---2---5---7------------------7--------------7---------------9----9-------------
D-------0---0---4---5------------------5--------------------------------------------------
A--0---------------------------------------------------------------------0----0-------------
E--------------------------------------------------------0------------------------------------

E--12--12--12--14--10--7--9--10--10--7--10--7---9----9---10--12---12---10-
B--11------------------7-----------------8---------------10--10--------------11---10--
G---9-------------------7-----------------7---------------9----9--------------12---11--
D---------------------------------------------------------------------------------------0---
A---9-------------------------------------10--------------0----0--------------10---------
E------------------------7------------------------------------------------------------------

Mais temas em Tablatura Chord Melody que você pode conferir em 
outras postagens:
Pomp and circumstance - Love me tender - Eu navegarei - Wave -
Pour Elise - Mais perto quero estar - Buscai primeiro - Not of this world -
Escorregando - Minueto - Nona Sinfonía - Jesus - Jazz blues 1 - Samba
de uma nota só - A Ele a glória ( porque Dele e por Ele ) - Vem! esta é
a hora - Oceano - O Barquinho - Sampa - Te agradeço - Meu bem 
querer - Garota de Ipanema - Eu sei que vou te amar - Carinhoso -
Coração de estudante - Este é o meu respirar - Assim como a corça -
A pantera cor de rosa - Em espírito e em verdade - Ele é exaltado -
Gente humilde - Poderoso Deus - Aclame ao Senhor - Santo! Santo!
Santo! cc9 - Yesterday - Over the rainbow - Os flintstones - Love of my
life - Quão preciosa são as horas - Pela luz dos olhos teus - My way -
Dei graças - Tristesse - Olha pra mim - Against all odds - True colors -
Heaven - Sonho de amor - Quanto amor - I want to know what love is -
Sou feliz com Jesus - Tears in heaven - Nos galhos secos - You'll be
in my heart