VÍDEO AULAS

PARA ASSISTIR AULAS DE: VIOLÃO; GUITARRA; TECLADO E BAIXO, VÁ NOS MARCADORES: DICAS

Tablatura: Chord Melody 38 : Over the rainbow ( Acorde - Melodia - Solo - Violão e Guitarra)

Over the rainbow
By Jeffão Peres

E----------8----7--------------7---8--------5-----3----------1----0-----------
B--1------5----8---8---10-------------1----6----1----------3--- 1----1----3-
G--0------5----7------------------------2----5----0-----2---1----0----0-------
D--2-------------------------------------3----5-----------3---------------2-------
A--3------0------------------------------------------------3------------------------
E---------------0------------------------1----------0-----1----4----3----3-------

E-------------------------------------0--------3----0----3---0---3---0---3---0---3-
B---5----6----3----0----1----3--------1----------1------------------1----------------
G---2----6----2---------------2---------0---------0------------------0---------------
D---2----5----3---------------3---------2----------------------------------------------
A---4----0--------------------------------3---------3------------------0---------------
E--------------------------------3--------------------------------------------------------

E--1---3---1---3---1---3---1---3----5--------3---1--------
B--3-----------------0------------------5---5---1---1----3--
G--2-----------------0------------------4--------0---2----2--
D--0---------------------------------------------------0----3--
A-----------------------------------------3--------0------------
E---------------------3--------------------------------------3--

E--3---0---3---0---3---0---3---0---3---2----5---2---5---2----5---2---5--
B-------1----------------1-----------------3------------------3------------------
G-------0----------------0-----------------2------------------5------------------
D-------------------------------------------0------------------0------------------
A-------3----------------0----------------------------------------------------------
E--------------------------------------------------------------------------------------

E--7----8-----10---
B--6----6------8----
G--7----5-----10---
D--5------------9---
A--------0------------
E----------------------

Mais temas em Tablatura Chord Melody que você pode conferir em 
outras postagens:
Pomp and circumstance - Love me tender - Eu navegarei - Wave -
Pour Elise - Mais perto quero estar - Buscai primeiro - Not of this world -
Escorregando - Minueto - Nona Sinfonía - Jesus - Jazz blues 1 - Samba
de uma nota só - A Ele a glória ( porque Dele e por Ele ) - Vem! esta é
a hora - Oceano - O Barquinho - Sampa - Te agradeço - Meu bem 
querer - Garota de Ipanema - Eu sei que vou te amar - Carinhoso -
Coração de estudante - Este é o meu respirar - Assim como a corça -
A pantera cor de rosa - Em espírito e em verdade - Ele é exaltado -
Gente humilde - Poderoso Deus - Aclame ao Senhor - Santo! Santo!
Santo! cc9 - Yesterday - Over the rainbow - Os flintstones - Love of my
life - Quão preciosa são as horas - Pela luz dos olhos teus - My way -
Dei graças - Tristesse - Olha pra mim - Against all odds - True colors -
Heaven - Sonho de amor - Quanto amor - I want to know what love is -
Sou feliz com Jesus - Tears in heaven - Nos galhos secos - You'll be
in my heart