VÍDEO AULAS

PARA ASSISTIR AULAS DE: VIOLÃO; GUITARRA; TECLADO E BAIXO, VÁ NOS MARCADORES: DICAS

Tablatura: Chord Melody 37 : Santo! Santo! Santo! C.C.N°9 ( Acorde - Melodia - Solo - Violão e Guitarra)

Santo! Santo! Santo!
By Jeffão Peres

E-----------2---2---5---5---7---7---7---7---5---------5---5---5---5---10--
B-3---3----3-------2---3---8---5---8---8---7----7---5--------7---5---- 7--
G-2--------4-------0---2---7---6----7---9---7----7---2--------7---6----7--
D-0---------------------0---5---5----5--------0----0------------0-------------
A-----------2--------0-------------------------------------4------------0--------
E--------------------------------------------9---------------------------------7--

E---9---5---0---5---7---5---5------------2---2---5---5---7---7---7---7-
B--10--7---2---2---9---3---2---3---3---3-------2---3---8---5---8---8--
G---9---7---2---2---7---4---2---2-------4-------0---2---7---6---7---9--
D--------0--------------------------0--------------------0--5---5---5-------
A-------------------------------0------------2-------0--------------------------
E---9--------0---0---0---0-------------------------------------------------9--

E--5-------10---5---5---7---------3----------------------
B--7---7---7----3---5---8----7---5----5---5---3---3--
G--7---7---7----2---5---7----7---4----4---4-------2--
D--0---0-------------0----5---10--5---5---5--------4--
A---------------------------------9------------0--------5--
E------------7----2-----------------------3----------------

Mais temas em Tablatura Chord Melody que você pode conferir em 
outras postagens:
Pomp and circumstance - Love me tender - Eu navegarei - Wave -
Pour Elise - Mais perto quero estar - Buscai primeiro - Not of this world -
Escorregando - Minueto - Nona Sinfonía - Jesus - Jazz blues 1 - Samba
de uma nota só - A Ele a glória ( porque Dele e por Ele ) - Vem! esta é
a hora - Oceano - O Barquinho - Sampa - Te agradeço - Meu bem 
querer - Garota de Ipanema - Eu sei que vou te amar - Carinhoso -
Coração de estudante - Este é o meu respirar - Assim como a corça -
A pantera cor de rosa - Em espírito e em verdade - Ele é exaltado -
Gente humilde - Poderoso Deus - Aclame ao Senhor - Santo! Santo!
Santo! cc9 - Yesterday - Over the rainbow - Os flintstones - Love of my
life - Quão preciosa são as horas - Pela luz dos olhos teus - My way -
Dei graças - Tristesse - Olha pra mim - Against all odds - True colors -
Heaven - Sonho de amor - Quanto amor - I want to know what love is -
Sou feliz com Jesus - Tears in heaven - Nos galhos secos - You'll be
in my heart