VÍDEO AULAS

PARA ASSISTIR AULAS DE: VIOLÃO; GUITARRA; TECLADO E BAIXO, VÁ NOS MARCADORES: DICAS

Tablatura: Chord Melody 46 : Against all odds ( Acorde - Melodia - Solo - Violão e Guitarra)

Against all odds
By Jeffão Peres

E----------------1---0--------3-------------------1---0-------
B--------------------------3-------3-------------------------3--
G------0---2-------------5-------4-------0---2------------2-  Int. 2x
D--0----------------------5------------0--------------------0--
A-----------------------------------------------------------------
E--------------------------3----------------------------------3--

E-------------------------------------------------------0--------------------------0--
B--------------------------------------------------3---3---3---3---1---3---3------
G--2---2---2---2---0---2----4---4---2---4--------0-----------------5-----------
D--5----------------------4----------------------------------------------5-----------
A--0----------------------2----------------------------3----------------5-----------
E---------------------------------------------------------------------------------------

E--1---0----------------0------------------------------0---1---1-------------------------
B--1-------3---1---3---------------------3---1---3-------1-------3--------1---1---1-
G--2----------------0-------0--------0--------0-----------2------------2---2-----------
D--3----------------3------------2---2--------2-----------0-----------------0-----------
A---------------------------------------2--------0------------------------------------------
E---------------------------------------0----------------------------------------------------

E------------------
B------------------           Volta
G--2-------2--0-      depois da Int.
D------3---0-----    e repete até aqui
A-----------------
E-----------3----

Refrão
E------0---3---0----------------0--------------------0-------------------------5-----------
B--3----------------3---1---1-------------------1---3---3---3-----------3---5---8---5-
G-----------------------------0------0---0---2-------2-------2---2---5-------5----------
D-----------------------------2---------------------------------4-----------------------------
A-----------------------------------------------------------------------------------0----------
E-----------------------------3-------------------------3------3-----------------------------

E------------1---0-------1---1---0-----------0------
B--5---5---1-------1---1------------3---1--0---3--      Repete
G-----------2------------2--------------------0-------    o Refrão
D-----------3------------0-----------------------------
A---------------------------------------------------------
E-----------------------------------------------3-------

E---------------1---0--------3-------------------1---0-------------------1---0------3--
B-------------------------3-------3------------------------3-----------------------3-----
G------0---2------------5-------4------0---2------------2------0---2-----------0-----
D--0---------------------5-----------0--------------------0---0-------------------0-----
A-------------------------------------------------------------------------------------3-----
E-------------------------3---------------------------------3------------------------------

E-----------------------
B------3------1-------
G--2------0------0---
D--0------3------0---
A------------------0---
E--3------1------3---

Mais temas em Tablatura Chord Melody que você pode conferir em 
outras postagens:
Pomp and circumstance - Love me tender - Eu navegarei - Wave -
Pour Elise - Mais perto quero estar - Buscai primeiro - Not of this world -
Escorregando - Minueto - Nona Sinfonía - Jesus - Jazz blues 1 - Samba
de uma nota só - A Ele a glória ( porque Dele e por Ele ) - Vem! esta é
a hora - Oceano - O Barquinho - Sampa - Te agradeço - Meu bem 
querer - Garota de Ipanema - Eu sei que vou te amar - Carinhoso -
Coração de estudante - Este é o meu respirar - Assim como a corça -
A pantera cor de rosa - Em espírito e em verdade - Ele é exaltado -
Gente humilde - Poderoso Deus - Aclame ao Senhor - Santo! Santo!
Santo! cc9 - Yesterday - Over the rainbow - Os flintstones - Love of my
life - Quão preciosa são as horas - Pela luz dos olhos teus - My way -
Dei graças - Tristesse - Olha pra mim - Against all odds - True colors -
Heaven - Sonho de amor - Quanto amor - I want to know what love is -
Sou feliz com Jesus - Tears in heaven - Nos galhos secos - You'll be
in my heart