VÍDEO AULAS

PARA ASSISTIR AULAS DE: VIOLÃO; GUITARRA; TECLADO E BAIXO, VÁ NOS MARCADORES: DICAS

Tablatura: Chord Melody 45 : Olha pra mim ( Acorde - Melodia - Solo - Violão e Guitarra)

Olha pra mim
By Jeffão Peres

E--3---2------3---2-------3---5---7---7---8---5---3--   
B----------1-----------3---5---7---8---8-------4---3--
G----------0-----------0-----------------9-------5---0-- Introdução
D----------2-----------0----------------10-----------0--
A----------0-----------2--------------------------6-------
E-----------------------------------------------------------

E------3---3---2---3---3-------3---3---2---3---3-----------------3--3---2---3-
B--3---------------------1---3---------------------3---3---3---3--3---------------
G------------------------0--------------------------0-----------------0--------------
D---------------------------------------------------------------------------------------
A------------------------0--------------------------2-----------------2--------------
E---------------------------------------------------------------------------------------

E--5---3------3---5---7---5--
B--5-------5----------------5---    Volta ao início
G--4-------------------------5--        e repete
D-----------------------------0--        até aqui
A--3-----------------------------
E---------------------------------

E--10---10-------5---3---7---5---10---10------5---3---2---5---3---10---10-
B---8---------7---5------------3----7---------7---5--------3-------3-----7--------
G---7-------------5-------------2----7-------------5--------2-------0-----7--------
D---0-----------------------------------------------------------------------------------
A------------------0-------------2-------------------0--------2-----------------------
E---------------------------------------7-------------------------------0-----0--------

E-------5---3---7----5---2---2---2---2---2---2---2---5---5----3----------------
B--7---5-------------3---3---------------------------3--------5--------3---3---3--
G-------5-------------2---2---------------------------2--------4--------2-----------
D--------------------------------------------------------------------------0-----------
A-------0-------------2---2---------------------------2--------3---------------------
E----------------------------------------------------------------------------------------

E-------------------------------------------------------------------------------------0-
B--3---3---3---0----3---5---5---3-----3---3---3---3---3---3----3---0---3---0--
G---------------------5--------5------5--2---------------------------2--------0---0--
D---------------------5--------5----------0---------------------------0--------2-------
A---------------------0--------0----------2---------------------------2--------3---3--
E------------------------------------------------------------------------------------------

E--3---2---0---2------------------------------------------------------------------------
B--0----------------3---3---3---3---3---3----3---3---3-------3---3--3--3--3--3--
G--0----------------2------------0-------------0--------5---0--5----------------------
D--------------------0------------0-------------0--------5-------5----------------------
A--3----------------2-------------------------------------0-------0----------------------
E----------------------------------0-------------0----------------------------------------

E-------0-----------------------------------3---2---0-------3---2---0------3---2---0------
B--0---3---3---3---3---3---3---3---3------------0---3------------0---3-----------3---3-
G-------2---------------------2---------------------0-----------------0---------------2------
D------------------------------0--------------------------------------------------------0------
A-------2---------------------2---------------------3-----------------3------------------------
E-------------------------------------------------------------------------------------------------

Mais temas em Tablatura Chord Melody que você pode conferir em 
outras postagens:
Pomp and circumstance - Love me tender - Eu navegarei - Wave -
Pour Elise - Mais perto quero estar - Buscai primeiro - Not of this world -
Escorregando - Minueto - Nona Sinfonía - Jesus - Jazz blues 1 - Samba
de uma nota só - A Ele a glória ( porque Dele e por Ele ) - Vem! esta é
a hora - Oceano - O Barquinho - Sampa - Te agradeço - Meu bem 
querer - Garota de Ipanema - Eu sei que vou te amar - Carinhoso -
Coração de estudante - Este é o meu respirar - Assim como a corça -
A pantera cor de rosa - Em espírito e em verdade - Ele é exaltado -
Gente humilde - Poderoso Deus - Aclame ao Senhor - Santo! Santo!
Santo! cc9 - Yesterday - Over the rainbow - Os flintstones - Love of my
life - Quão preciosa são as horas - Pela luz dos olhos teus - My way -
Dei graças - Tristesse - Olha pra mim - Against all odds - True colors -
Heaven - Sonho de amor - Quanto amor - I want to know what love is -
Sou feliz com Jesus - Tears in heaven - Nos galhos secos - You'll be
in my heart