VÍDEO AULAS

PARA ASSISTIR AULAS DE: VIOLÃO; GUITARRA; TECLADO E BAIXO, VÁ NOS MARCADORES: DICAS

Tablatura: Chord Melody 44 : Tristesse ( Acorde - Melodia - Solo - Violão e Guitarra)

Tristesse
By Jeffão Peres

E--------------------------0--0------0---1---1---0---5---3------0----------
B-------1---0---1---3----------3---1-----------------6-------6------0---1-
G--0---0-------------0--------------0-----------------5------------------------
D-------2-------------0----------------------------------------------------------
A-------3-----------------------------3------------------------------------------
E----------------------3----------------------------------------------------------

E------0---0------------0---1-----0---1---3---0---1---5-------0----------
B--3-----------3---1---1-------3------1-----------------7-----------3---3--
G--0-----------0---0---0---------------2-----------------5---7-----------2--
D--0-----------3---2-------------------3-----------------0----------------0--
A--------------------3---3-------------------------------------------------------
E--3-----------3-------------------------------------------------------------2--

E--0------3---------------------------0---0-------0---1---1---0---5---3-----
B------3--3--------1---0---1---3------------3---1-----------------6-------6-
G----------0---0---0------------0-----------------0-----------------5----------
D---------------3---2------------0------------------------------------------------
A--------------------3------------------------------3-----------------------------
E----------3---3-----------------3------------------------------------------------

E--0----------------0---0----------------------------------------------------------
B------0---1---3-----------3---1---------------------------------------0--1--1-
G---------------0-----------0---0---0---2---2---0-------0----------------------
D---------------0-----------3---2---2-----------------3-------2---3-------------
A----------------------------2---3---3-----------------3---------------------------
E---------------3---------------------------------------1---------------0---------

E----------------------------------------------0-----------0-------------------------
B--0------0-----------1---3---0---1---3-------1---3---1----3---1------0---1--
G------2------1---2---------------------------------------0-----------2---0------
D------2---------------0----------------------------------------------------0-------
A------0----------------------------------------------------3---------------------0--
E--4--------------------------------------3----------------------------------3-------

E-------------------------------------------------------0--------1----4---8--
B--0--------------------------------------3---1-------1---3--------------8---
G------2-------0---2---0----------------1-------1---0---1--------------9---
D----------2---2---3-------3-------2---3-----------------3-------------10--
A---------------2---3-----------3---3-----------------3-----------------------
E---------------0---1---------------------1-----------------1------------------

Mais temas em Tablatura Chord Melody que você pode conferir em 
outras postagens:
Pomp and circumstance - Love me tender - Eu navegarei - Wave -
Pour Elise - Mais perto quero estar - Buscai primeiro - Not of this world -
Escorregando - Minueto - Nona Sinfonía - Jesus - Jazz blues 1 - Samba
de uma nota só - A Ele a glória ( porque Dele e por Ele ) - Vem! esta é
a hora - Oceano - O Barquinho - Sampa - Te agradeço - Meu bem 
querer - Garota de Ipanema - Eu sei que vou te amar - Carinhoso -
Coração de estudante - Este é o meu respirar - Assim como a corça -
A pantera cor de rosa - Em espírito e em verdade - Ele é exaltado -
Gente humilde - Poderoso Deus - Aclame ao Senhor - Santo! Santo!
Santo! cc9 - Yesterday - Over the rainbow - Os flintstones - Love of my
life - Quão preciosa são as horas - Pela luz dos olhos teus - My way -
Dei graças - Tristesse - Olha pra mim - Against all odds - True colors -
Heaven - Sonho de amor - Quanto amor - I want to know what love is -
Sou feliz com Jesus - Tears in heaven - Nos galhos secos - You'll be
in my heart