VÍDEO AULAS

PARA ASSISTIR AULAS DE: VIOLÃO; GUITARRA; TECLADO E BAIXO, VÁ NOS MARCADORES: DICAS

Contra Baixo: Acompanhamentos 2 ( D7, G7, A7, A, D, E, Am, Dm, Em - Blues, Rock )

By Jeffão Peres
Acompanhamentos
              D7                      G7                       D7                   A7
G----------------------------------------------------------------------------------------
D------------------------0-3-4-5-5-5-3-0-------------------------------------------
A--0-3-4-5-5-5-3-0-----------------------0-3-4-5-5-5-3-0---------------------
E-------------------------------------------------------------------0-3-4-5-5-5-3-0-

  A                           D                            A                            E   
G------------------2---------------------7------------------------2-------------------------
D------------2-4-------------------7-9---------------------2-4-------------------------2--
A--0---2-4---------------5---7-9---------------0---2-4-------------------------2-4-----
E---------------------------------------------------------------------------0---2-4----------

  Am                        Dm                       Am                        Em
G----------------------------------------------------------------------------------------------
D-------------------------0-0-2-0-3-0-5-3------------------------------------------------
A--0-0-2-0-3-0-5-3-------------------------0-0-2-0-3-0-5-3-------------------------
E------------------------------------------------------------------------0-0-2-0-3-0-5-3-